Oops, an error
Loading. Please wait.

Camino Al Sepulcro bass

by V8
29 views 1 this week
no commentswrite comment
1 2 3 4 5
3 more votes to show rating
add to favorites
×
Save as Personal and add changes to this tab that will be seen only by you. Learn more ›
×
You can save this tab as Personal to edit and correct it or add notes. All changes will be seen only by you. Learn more »
launch autoscroll
font size
0
reset
guitar tuner
edit
Autoscroll
slow
fast
+/-
esc
set tempo
stop
    (4 veces)                                           (4 veces)
G|--------------|-----------------------------|----------------------2----|
D|-9----8-------|-----------------------------|-0|0|3|0|0|5|0|0|3|0|0-3-3-|
A|-7----6-------|-----------------------------|---------------------------|
E|--------------|-1------1-1------1------1-1/-|---------------------------|

G|--------------------------------------------------------
D|--------------------------------------------------------
A|-3---2--------------------------------------------------
E|---------2---3-----------2h3-----------2h3-----------4--

          (3 veces)
G|----------------------------|-----------------------------
D|----------------------------|--------------------5--4-5h7-
A|-0-0-0-0-0-0-0-0-5-5--5---5-|-0--0-0-0-0-0|5--5-5---------
E|----------------------------|-----------------------------

                     (4 veces)
   ?Siempre les tengo que difundir,cosas que estan en mi memoria?
G|------------------------------------------------------------|
D|------------------------5--------------------------5--4-5h7-| Parte
A|-0--0-0-0-0-0-0-0-0-7-5---7-5-3-0--0-0-0-0-0|5--5-5---------|   A
E|------------------------------------------------------------|

   ?cual va a ser mi camino a seguir,te advertimos antes que sea inútil?
G|------------------------------------------------9---9---9---9---
D|----------------------------------------------9---9---9---9-----
A|-0--0-0-0-0-0-0-8-8-8-8-8-8-8-8-7-7-7-7-7-7-7-------------------
E|----------------------------------------------------------------

?encuentra ya el? ?encuentra ya el camino a seguir?                 \
G|-------------------------------------------                       |
D|-------------------------------------------                       |
A|-------------------------------------------                       |
E|-5---3---2---0--3--5--5-5-5-5-5-5-3--3---3/                       |
                                                                    |Parte
?encuentra ya el? ?encuentra ya el camino a seguir?                 |  B
G|---------------------------------------------------------------   |
D|---------------------------------------------------------------   |
A|---------------------------------------------------------------   |
E|-5---3---2---0--3--5--5-5-5-5-5-5-3--3--3--3---2---3---2--3--2-   |
                                                                    /
Repite parte A (2 vueltas). Despues:

G|------------------------------------------------9-9-9-9---------
D|----------------------------------------------9---------9-9-9-9-
A|-0--0-0-0-0-0-0-0-8-8-8-8-8-8-8-7-7-7-7-7-7-7-------------------
E|----------------------------------------------------------------

Repite parte B. Despues:

                             (4 vueltas)       (3 vueltas)
?a seguir!!!?           ?ahhhhhhhh?!!
G|---------------------|---------------------|--------------|
D|---------------------|--------------2------|--------2-----|
A|-3---2---3---2--3--2-|-2----3---2-3---3-2--|-2--2-3---3-2-|
E|---------------------|---------------------|--------------|

                                                       (4 vueltas)
G|------------------------------------------|-------------------------------|
D|------------------------------------------|-----------------------5-------|
A|-3---2---3---2--3--2----------------------|-0--0-0-3--3-3---0-7-5---7-5-3-|
E|----------------------3---2---3---2--3--2-|-------------------------------|

                   (2 vueltas)
?los rostros de mal estan cuidando,que no te apartes?
G|---------------------------------------------------|
D|-------------------------------------------5-------| Parte
A|-0--0-0-3--0--0|5--4~---0-0-3----0---0-7-5---7-5-3-|   C
E|---------------------------------------------------|

            (2 vueltas)
G|-------------------------------|----------------------------------
D|-----------------------5-------|----------------------------------
A|-0--0-0-3--3-3---0-7-5---7-5-3-|-0---7-6-5------7-6-5------7-6-5--
E|-------------------------------|-----------8-5--------8-5--------8

                   (5 vueltas)
G|----------------------------------------------------|
D|--------------------------------------------7-------|
A|----------------9--8~-------------------9-7---9-7-5-|
E|-7--7-7-7---7-----------7--7-7-7---7--7-------------|

           (4 vueltas)
G|-------------------------------|
D|-----------------------5-------|
A|-0--0-0-3--3-3---0-7-5---7-5-3-|
E|-------------------------------|

Repite parte C. Despues:

           (2 vueltas)
G|-------------------------------|------------------------------------------
D|-----------------------5-------|------------------------------------------
A|-0--0-0-3--3-3---0-7-5---7-5-3-|-0---7-6-5------7-6-5------7-6-5----------
E|-------------------------------|-----------8-5--------8-5--------8-5------


G|--------------------------------------------
D|--------------------------------------------
A|----------------------------------5--5------
E|-1------1-1------1------1---1---------------

El original de este tema esta un cuarto de semitono mas grave que la afinacion
comun (La 440).

     /: slide up (?arrastrar? hacia adelante)
     h: hammer on (ligado)
 x |x : tocar las dos notas consecutivamente rápido por Ej. 0|5
    ~ : vibrato

Camino al sepulcro (Civile-Zamarbide-Rowek-Iorio)

Siempre les tengo que difundir
las cosas que están en mi memoria
aunque se ha puesto difícil
velozmente elevo mi máquina
mil espejos entran en mi mente
mil rocas de fuego la envuelven
ya es tiempo de decidir
cuál va a ser mi camino a seguir
te advertimos, antes que sea inútil

Encuentra ya el camino a seguir...

mil espejos entran en mi mente
mil rocas de fuego la envuelven
ya es tiempo de decidir
cuál va a ser mi camino a seguir
te advertimos, antes que sea inútil

Encuentra ya el camino a seguir...

Los rostros del mal estan cuidando
que no te apartes de sus filas
ridículos son sus argumentos
para que tú ofrendes tu vida...

            
            
Suggest correction
Creating personal tab
Creating personal tab
You can edit any tab online and save it as your Personal.

You can edit, replace or remove any tab part or add personal notes – all changes will be seen only by you.

Personal tabs can be accessed anytime from any device, even offline.
Learn more »
Give kudos to tab author, rate the tab!
1 2 3 4 5
comments
print report bad tab
guest
Wanna post a correction for this tab? Suggest correction