Oops, an error
Loading. Please wait.

Camino Al Sepulcro tab

by V8
54 views 1 this week
no commentswrite comment
1 2 3 4 5
3 more votes to show rating
add to favorites
×
Save as Personal and add changes to this tab that will be seen only by you. Learn more ›
×
You can save this tab as Personal to edit and correct it or add notes. All changes will be seen only by you. Learn more »
launch autoscroll
font size
0
reset
how to read this tab
guitar tuner
edit
Autoscroll
slow
fast
+/-
esc
set tempo
stop
                                         E5/D5#
e|--------------------------------------+-------|
B|--------------------------------------+-------|x4
G|--------------------------------------+-------|
D|--------------------------------------+--9-8--|
A|--------------------------------------+--7-6--|
E|--0-3-5--0-3-5--0-3-5--0-3-5--0-3-5-0-+-------|

e|-----------------------------+---------------------------------|
B|-----------------------------+---------------------------------|X4
G|-----------------------------+---------------------------------|
D|--0-0-3^0-0-6^0-0-3^0-0-7-3--+--0-0-3^0-0-6^0-0-3^0-0-7-3-3----|
A|-----------------------------+---------------------------------|
E|-----------------------------+---------------------------------|

D5 / C5 / B5
F5# / G5

e|----------------------------------------------------------------------------|
B|----------------------------------------------------------------------------|X2
G|----------------------------------------------------------------------------|
D|----------------------------------------------------------------------------|
A|--5----------------------------------4/5------------------------------------|
E|--3-3-3-3-3-3-3-3-3-3-3-3-3-3-3-3-3--2/3-3-3-3-3-3-3-3-3-3-3-3-3-3-3-3-3-3--|

e|----------------------------------------------|
B|----------------------------------------------|(Ultima vez)
G|----------------------------------------------|
D|----------------------------------------------|
A|--5----------------------------------------7--|
E|--3-3-3-3-3-3-3-3-3-3-3-3-3-3-3-3-3--3-3-0-5--|


e|------------------------------------------------------------|
B|------------------------------------------------------------|
G|----9--9--7-7---9--9--7-7--7--9--9--7-7--9--9-7--7-6--------|
D|----7--7--7-7---7--7--7-7--7--7--7--7-7--7--7-7--5-4-4/5/7--|
A|-----------------------------------------------------4/5/7--|
E|--0---------------------------------------------------------|


  BASE:
e|------------------------------------------------------------------|
B|------------------------------------------------------------------|
G|------------------------------------------------------------------|
D|--------------------5-----------------------7\6--12\11--11/12/14--|
A|--7-------------7-5---7-5---7---------------5\4--10\9----9/10/12--|
E|--5-5-5-5-5-5-5-----------8-5--5-5-5-5-5-5------------------------|


Siempre les tengo que difundir
las cosas que están en mi memoria
aunque se ha puesto difícil
Velozmente elevo mi máquina


A              F5           E5
Te advertimos antes que séa inutil


encuentra ya el camino a seguir...
encuentra ya el camino a seguir...
encuentra ya el camino a seguir...
encuentra ya el camino a seguir...


   Encuentra...     encuentra...
e|-------------------------------------------|
B|-------------------------------------------|x2
G|--9--7-----6-------------------------------|
D|--7--5-----4--7----------------------------|
A|--------------5--7----------------5-----5--|
E|-----------------5-5-5-5-5-5-5-5--3--3--3--|

G5/F5#
G5/F5#
G5/G5#


mil espejos entran en mi mente
mil rocas de fuego la envuelven
Ya es tiempo de decidir
cuál va a ser el camino a seguir

Te advertimos antes que séa inutil


SOLO GUITARRA


encuentra ya el camino a seguir...
encuentra ya el camino a seguir...
encuentra ya el camino a seguir...
encuentra ya el camino a seguir...


e|---------------------------------|
B|---------------------------------|x4
G|---------------------------------|
D|------------------------5--------|
A|--------------------7-5---7-5----|
E|--5--5-5-8--5-5-8-5-----------8--|

  Los rostros...
e|----------------------------------------------------|
B|----------------------------------------------------|
G|----------------------------------------------------|
D|-------------------------------------------5--------|
A|----------------8-6--------------------7-5---7-5----|
E|--5--5-5-8--5-5------5--5-5-8--5-5-8-5-----------8--|


Los rostros del mal están cuidando
que no te apartes de sus filas
Ridículos son los argumentos
para que tu ofrendes la vida...

e|---------------------------------------------------------------------------------------------|
B|---------------------------------------------------------------------------------------------|
G|---------------------------------------------------------------------------------------------|
D|-----------------------5------------------------------5--------------------------------------|
A|-------------------7-5---7-5----------------------7-5---7-5------7-6-5-----7-6-5-----7-6-5---|
E|-5--5-5-8--5-5-8-5-----------8--5--5-5-8--5-5-8-5-----------8-5--------8-5-------8-5-------8-|


SOLO GUITARRA (B)


Los rostros del mal están cuidando
que no te apartes de sus filas
Ridículos son los argumentos
para que tu ofrendes la vida...

  FINAL:                                                      X2
e|------------------------------------------------------------+-----|
B|------------------------------------------------------------+-----|
G|------------------------------------------------------------+-----|
D|--0-0-3^0-0-6^0-0-3^0-0-7-3----0-0-3^0-0-6^0-0-3^0-0-7-3-3--+--7--|
A|------------------------------------------------------------+--5--|
E|------------------------------------------------------------+-----|

            
            
Suggest correction
Creating personal tab
Creating personal tab
You can edit any tab online and save it as your Personal.

You can edit, replace or remove any tab part or add personal notes – all changes will be seen only by you.

Personal tabs can be accessed anytime from any device, even offline.
Learn more »
Give kudos to tab author, rate the tab!
1 2 3 4 5
comments
print report bad tab
guest
Wanna post a correction for this tab? Suggest correction