Oops, an error
Loading. Please wait.

Cautivos Del Sistema bass

by V8
138 views 1 this week
no commentswrite comment
1 2 3 4 5
3 more votes to show rating
add to favorites
×
Save as Personal and add changes to this tab that will be seen only by you. Learn more ›
×
You can save this tab as Personal to edit and correct it or add notes. All changes will be seen only by you. Learn more »
launch autoscroll
font size
0
reset
guitar tuner
edit
Autoscroll
slow
fast
+/-
esc
set tempo
stop
G|----------------------------------------------
D|----------------------------------------------
A|-7---7--7----7---7--7----7---7--7----7---7--7-
E|----0--0--------0--0--------0--0--------0--0--

G|---------------------------------------------------------------------
D|---------------------------------------------------------------------
A|-7--9--10-------5|5--5--5|5|5|7-----------------------------7--------
E|-----------8----------------------------0---------0------------------

G|--------------------------
D|-12|12|12|12|12|12|12--12-
A|--------------------------
E|--------------------------

                                                     \
?Transando en el magro camino de la fe?               |
G|----------------------------------------------     |
D|----------------------------------------------     |
A|----7---9---7---9--9h10-----7---9---7---9--9p8     |
E|-0-0-0-0-0-0-0-0---------0-0-0-0-0-0-0-0------     |
                                                     | Parte
?encuentro a mis hermanos lejos de entender que?     |   A
G|---------------------------------------------      |
D|---------------------------------------------      |
A|----7---9---7---9--9h10-----7---9---7---9--9\      |
E|-0-0-0-0-0-0-0-0---------0-0-0-0-0-0-0-0-----      |
                                                     /

                (2 veces)                                        \
?tiempo agitando su espada refleja?                              |
G|----------------------------------------|                      |
D|----------------------------------------|                      |
A|-3--3---3------------2--2---3--2--2---2-|                      |
E|-----------2--2---2---------------------|                      |
                                                                 | Parte
?llora al verlo cautivo   de un sistema en el cual tambien?      |   B
G|------------------------------------------------------------   |
D|------------------------------------------------------------   |
A|-3--3---3------------2--2---3--2--2---2--3--3---3-----------   |
E|-----------2--2---2--------------------------------2--2---2-   |
                                                                 /
                       (3 veces)
?torturandonos a pensar en el futuro?
G|------------------------------------------------------------|
D|------------------------------------------------------------|
A|----------------------------------5----------5--------------|
E|-0-0-0-0-0-0-0-0-0-0-0-0-0-0-0-0-0--------------------------|

?avecinando el fin de nuestra vil existencia?
G|-------------------------------------
D|--------------------------9---7------
A|----------------------------------5--
E|-8--8--8-8---8-8-7--7--7-------------

Repite parte A, B. Despues:

                         (2 veces)
?torturandonos a pensar en el futuro?
G|-------------------------------------------------------------|
D|-------------------------------------------------------------|
A|----------------------------------5----------5---------------|
E|-0-0-0-0-0-0-0-0-0-0-0-0-0-0-0-0-0---------------------------|

?revolcados en lo inmoral y lo corrupto?
G|-------------------------------------------------------------
D|----------------------------------------------------------6\-
A|-7-7-7-7-7-7-7-7-7-7-7-7-7-7-7-7-7|5---------5---------------
E|-------------------------------------------------------------

?avecinando el fin de nuestra vil?       (4 veces)
G|--------------------------4---2-----|--------------|
D|------------------------------------|--------------|
A|-3--3--3-3---3-3-2--2--2----------5-|-7---7---7----|
E|------------------------------------|--------------|

G|-----------------------------
D|-----------------------------
A|-7--9--10-------5|5--5--5|5|5
E|-----------8-----------------

                                                             \
G|----------------9----------------------------------------  |
D|--------------9---9----------------------9---------------  |
A|-7-7-7|7-7--7------10--10-10|10-10-10-10---10|7-7-7|7-7-7  |
E|---------------------------------------------------------  |(4 veces)
                                                             |
G|------------------------------|                            |
D|------------------------------|                            |
A|-7--9--10---------------------|                            |
E|---------8--8-8-8|10--10-10-10|                            |
                                                             /

G|-------------------------------------------------------------------
D|------------------------------------------12|12|12|12|12|12|12--12-
A|-----------7-------7--7---------7----------------------------------
E|-0-----------------------------------------------------------------

Repite parte A, B. Despues:

                         (3 veces)
?y vos y yo consumidores de basura?
G|-------------------------------------------------------------|
D|-------------------------------------------------------------|
A|----------------------------------5----------5---------------|
E|-0-0-0-0-0-0-0-0-0-0-0-0-0-0-0-0-0---------------------------|

?y rien al vernos caer en su trampa?     (4 veces)
G|--------------------------4---2-----|--------------|
D|------------------------------------|--------------|
A|-3--3--3-3---3-3-2--2--2----------5-|-7---7---7----|
E|------------------------------------|--------------|

G|------------------------------------------------
D|------------------------------------------------
A|-7--9--10-------5|5--5--5|5|5|7-----------------
E|-----------8------------------------------------

El original de este tema esta un cuarto de semitono mas grave que la afinacion
comun (La 440).

     \: slide down (?arrastrar hacia atrás)
     p: pull off (ligado hacia atras)
     h: hammer on (ligado)
 x |x : tocar las dos notas consecutivamente rápido por Ej. 5|5

Cautivos de un sistema (Iorio)

Transando en el magro camino
de la fe, encuentro
a mis hermanos lejos
de entender que
El tiempo agitando su espada refleja
la obra del hombre ante Dios
quien llora al verlo, cautivo
de un sistema, en el cual
también estamos vos y yo!!
Torturandonos, al pensar en el futuro
viendo nuestros días morir sin ser felices
revolcados en lo inmoral y lo corrupto
avecinando el fin de nuestra vil existencia.
Demoran el paso final de la era
sectarios, en ideas sin razón
que ocultan lo cierto de nuestra
existencia, hundiendonos aún
más en lo peor!
Y vos y yo consumidores de basura
acrecentamos el poder de esta gente
que nos impone las reglas de este juego
y rien al vernos caer en su trampa demente.

            
            
Suggest correction
Creating personal tab
Creating personal tab
You can edit any tab online and save it as your Personal.

You can edit, replace or remove any tab part or add personal notes – all changes will be seen only by you.

Personal tabs can be accessed anytime from any device, even offline.
Learn more »
Give kudos to tab author, rate the tab!
1 2 3 4 5
comments
print report bad tab
guest
Wanna post a correction for this tab? Suggest correction