Oops, an error
Loading. Please wait.

Cautivos Del Sistema tab

by V8
160 views 1 this week
no commentswrite comment
1 2 3 4 5
3 more votes to show rating
add to favorites
×
Save as Personal and add changes to this tab that will be seen only by you. Learn more ›
×
You can save this tab as Personal to edit and correct it or add notes. All changes will be seen only by you. Learn more »
launch autoscroll
font size
0
reset
how to read this tab
guitar tuner
edit
Autoscroll
slow
fast
+/-
esc
set tempo
stop
INTRO:
e|---------------------------------------------------------------------------|
B|---------------------------------------------------------------------------|
G|-9-9-9----9----9-9-9----9--------9-9-9------------9-9-9--9-11-12-5-------7-|
D|-9-9-9--9---9--9-9-9--9---9------9-9-9-----9------9-9-9--9-11-12-5-------7-|
A|-7-7-7---------7-7-7--------10~--7-7-7--10---10~--7-7-7--7-9--10-3---5-5-5-|
E|---------------------------------------------------------------------------|

BASE: 
e|-----------------------------------------------------|
B|-----------------------------------------------------|
G|-----------------------------------------------------|
D|----9-12----9-11-11---------9-12----9-11-11-12\11\9--|
A|--7-7-10--7-7-9---9/10----7-7-10--7-7-9---9-10\9-\7--|
E|-----------------------------------------------------| 

Transando en el magro 
camino de la fe
encuentro a mis hermanos 
lejos de entender que 

C5 F# B5 
el tiempo agitando su espada refleja,
C5 F# B5/C5/B5
la obra del hombre ante Dios,
C5 F# B5
quien llora al verlo cautivo de un sistema
C5 F# 
en el cual también estamos vos y yo!

Em D5
Torturándonos al pensar en el futuro
Em
viendo nuestros días 
D5
morir sin ser felices
Em D5
revolcándonos en lo inmoral y lo corrupto
C5
avecindando el fin 
B5
de nuestra vil existencia!

SOLO GUITARRA

Torturándonos al pensar en el futuro
viendo nuestros días 
morir sin ser felices 
revolcándonos en lo inmoral y lo corrupto
avecindando el fin 
de nuestra vil existencia! 

COMO INTRO

SOLO GUITARRA 

Transando en el magro 
camino de la fe
encuentro a mis hermanos 
lejos de entender que: 

Demoran el paso final de la era
sectarios en ideas sin razón
que ocultan lo cierto de nuestra existencia
hundiéndonos aún más en lo peor

y vos y yo consumidores de basura
acrecentamos el poder
de esas mentes
que nos imponen 
las reglas de este juego
y ríen al vernos caer
en su trampa demente!!! 

FINAl:
e|-------------------------------------------------------------------------------|
B|-------------------------------------------------------------------------------|
G|--9-9-9----9----9-9-9----9--------9-9-9------------9-9-9--9-11-12-5------7--9--|
D|--9-9-9--9---9--9-9-9--9---9------9-9-9-----9------9-9-9--9-11-12-5------7--9--|
A|--7-7-7---------7-7-7--------10~--7-7-7--10---10~--7-7-7--7-9--10-3--5-5-5--7--|
E|-------------------------------------------------------------------------------|
Suggest correction
Creating personal tab
Creating personal tab
You can edit any tab online and save it as your Personal.

You can edit, replace or remove any tab part or add personal notes – all changes will be seen only by you.

Personal tabs can be accessed anytime from any device, even offline.
Learn more »
Give kudos to tab author, rate the tab!
1 2 3 4 5
comments
print report bad tab
guest
Wanna post a correction for this tab? Suggest correction