Oops, an error
Loading. Please wait.

Deseando Destruir Y Matar bass

version 2
version 2

Whole song

by V8
100 views 1 this week
no commentswrite comment
1 2 3 4 5
3 more votes to show rating
add to favorites
×
Save as Personal and add changes to this tab that will be seen only by you. Learn more ›
×
You can save this tab as Personal to edit and correct it or add notes. All changes will be seen only by you. Learn more »
launch autoscroll
font size
0
reset
guitar tuner
edit
Autoscroll
slow
fast
+/-
esc
set tempo
stop
                      (4 veces)                                      ?La noche?
G|--------------------------7--7-7-7-7-7----------------|----------------------
D|-------3-2-----------------------------5--5-5-5-5-5-5-|-------3-2------------
A|-0-3-0-----3-5--5-5-5-5-5-----------------------------|-0-3-0-----3-5--------
E|------------------------------------------------------|----------------------

        (2 veces)
G|----------------------|-------------7--7--7--7--7---
D|----3-----------------|----3------------------------ Parte
A|-3-----3-5------------|-3-----3-5-------------------   A
E|----------------------|-----------------------------

?pronto se cierran las puertas?           ?y el miedo envuelve el?
G|-------------------------------------------------------------5---
D|----------------8-6---6-8-6--------------5-----------------------
A|--------------------8-------8---------5------5--3--------3-------
E|-6-6-6-6-6-6-6------------------3--------------------------------

lugar?           ?mil naves se acercan deseando?
G|-------------7--5---------------------------------------------
D|-------------------7----------------8-6---6-8-6--------5----5-
A|-5---------5----------------------------8-------8--------5----
E|---------------------6-6-6-6-6-6-6------------------3---3-----

?destruir y matar
G|---------5------------------5-----------------------
D|------5------------------5----5h7-------------------
A|-3----------5---5-5--3-----------0----0--7----------
E|--------------------------------------------3-3--3--

0:53
G|----------------------------------------------------------
D|----------------------------------------------------------
A|----------------------------------------------------------
E|-3-3-3-3-3-3-3-3-3-3-5-3-6-3-3-3-3-3-5-3-6-3-3-3-3-3-5-3-6

                            ?y el dolor?
G|--------------------------------------
D|--------------------------------------
A|-------------------------5------------
E|-3-3-3-3-3-3-3-5----------------------

Repite parte A. Despues:

?se agudiza el llanto y la gente?             ?padece por un?
G|-----------------------------------------------------------------
D|----------------8-6---6-8-6--------------5-----------------------
A|--------------------8-------8---------5-----5---3--------3-------
E|-6-6-6-6-6-6-6------------------3--------------------------------

?ideal?          ?mil hombres se enfrentan sembrando?
G|--------7-7-7-7-7-7-------------------------------------------
D|------------------------------------8-6---6-8-6-------------5-
A|-5--------------------------------------8-------8-------5-----
E|---------------------6-6-6-6-6-6-6------------------3---------

?destrucción total?
G|---------5------------------5-----------------------------------------
D|------5------------------5--------------------------------------------
A|-3----------5---5-5--3-----------0----0--------------5----------------
E|--------------------------------------------3--3--3-------------------

1:33
G|--------------------------------------------------------------------------
D|------------------------9-------------------------------------------------
A|-7--7--7-7-7-7--7--9-10--------------------------9-0--0--0-0-0-5--5--5-5-5
E|--------------------------8--8--8-8-8-8--8--8-10--------------------------

                             (2 veces)
G|--------------------9-----------------------------------------------------
D|-----------------8---------------------------10---------------------------
A|-7--7--7-7-7-7----------------------------9--------0--0--0-0-0-5--5--5-5-5
E|--------------------------8--8--8-8-8-8-----------------------------------

G|----------------------------------------------------------------------------
D|------------------------9---------------------------------------------------
A|-7--7--7-7-7-7--7--9-10--------------------------9-0--0--0-0-0-5--5--5-5-5--
E|--------------------------8--8--8-8-8-8--8--8-10----------------------------

                 (2 veces)
G|------------------------------------------|
D|------------------------------------------|
A|-7-----7----7---5--5---2--2--2---0--0--0--|
E|------------------------------------------|
                                                                        \
G|------------------------------------------------------------12--      |
D|----------------12-11-12-11---------------------12-11-12-11-----      |
A|---------7------------------12-----------7----------------------      |
E|-0-0-0-0-------------------------0-0-0-0------------------------      |Parte
                                                                        |  B
G|------------------------------------------------14-13----13-12------- |
D|----------------12-11-12-11---------------------------12-------13-12- |
A|---------7------------------12-----------7--------------------------- |
E|-0-0-0-0-------------------------0-0-0-0----------------------------- |
                                                                        /
                         (3 veces)
?                            ?y el valiente con la sangre?
G|---------------------------------------------------------|
D|-----------------------------------------------------5---| Parte
A|---------7-------5-4-5-4-------------7-------5-4-5-4-----|   C
E|-0-0-0-0-----------------5---0-0-0-0---------------------|

                            (2 veces)
?todo es miedo y muerte, pena llanto y dolor                   mundo hoy?
G|------------------------------------------------------------------|
D|------------------------------------------------------------------| Parte
A|-------------------------------------------------------------7-5--|   D
E|-0-0-0-0-0-0-0-0-0-0-0-0-0-0-0-0-0-0-0-0-0-0-0-0-0-0-0-0-0-0------|

Repite parte B, C (5 veces). Despues:

G|------------------------------------------------------------
D|------------------------------------------------------------
A|---------7-------5-4-5-4--------------------7-7-7-7-7-7-7-7-
E|-0-0-0-0-----------------5--0-0-0-0-0-0-0-0-----------------

Repite parte C (2 veces), D. Despues

3:55
                 (2 veces)
G|-------------------7---------------------------------------
D|----------------7------------------------------------------
A|-7-----7---------------2-----2---0-----0-----7-------------
E|-----------------------------------------------------------

                      (2 veces)                                       ?Para el?
G|--------------------------7--7-7-7-7-7----------------|----------------------
D|-------3-2-----------------------------5--5-5-5-5-5-5-|-------3-2------------
A|-0-3-0-----3-5--5-5-5-5-5-----------------------------|-0-3-0-----3-5--------
E|------------------------------------------------------|----------------------

Repite parte A.

?codicia, ambicion e injusticia?                 ?que culminan en?
G|-----------------------------------------------------------------
D|----------------8-6---6-8-6--------------5-----------------------
A|--------------------8-------8---------5-----5---3--------3-------
E|-6-6-6-6-6-6-6------------------3--------------------------------

?agresión?       ?fuerza demencial?             ?que domina al mundo de hoy?
G|--------7-7-7-7-7-7-----------------------------------------------------5----
D|------------------------------------8-6---6-8-6-------------5--------5-------
A|-5--------------------------------------8-------8-------5-------3------------
E|---------------------6-6-6-6-6-6-6------------------3------------------------

?hoy?         ?hoy?        ?hoy?        ?hoy?
G|--------------------------------------------------------------------------
D|--------------------------------------------------------------------------
A|-5------------3------------0-------------------------5----5----5-3----3---
E|----------------------------------------3---------------------------------

G|-------------------------------------------------------------------------
D|-------------------------------------------------------------------------
A|-0----0----0-----------------------5-5-5-5-5-5-5-5-5-5-5-5-?-5-----------
E|-------------3-----3-----1-----------------------------------------------

El original de este tema esta un cuarto de semitono mas grave que la afinacion
comun (La 440).

     h: hammer on (ligado)

Deseando destruir y matar (Iorio)

La noche está, ya por caer
la soledad, nos deja ver
que pronto se cierran las puertas
y el miedo envuelve el lugar
mil naves se acercan, deseando
destruir y matar.
Y el terror, ya floreció
la mutilación, ya comenzó.
Se agudiza el llanto y la gente
padece por un ideal
mil hombres se enfrentan sembrando
destrucción total.
Muere el cobarde bañado en su sangre
y el valiente con la sangre enemiga.
Todos creen en Dios,
ante el miedo incontrolable.
El ardiente metal, penetrandoles la carne.
Todo es miedo y muerte
penas, llanto y dolor
azotes de maldad
que recibe el mundo hoy
Su mal los condena
aunque ellos no lo advierten
el infierno goza
con la idiotez de esta gente.
Todo es miedo y muerte
penas, llanto y dolor
azotes de maldad
que recibe el mundo hoy
corriste a la guerra,
por tu suelo y por tu gente
la que te ha olvidado
y aún hostiga tu presente
Para el hombre, no hay mas mal,
que el propio hombre, al engendrar,
codicia, ambición, e injusticias
que culminan en agresión
fuerza demencial, que domina
al mundo de hoy.

            
            
Suggest correction
Creating personal tab
Creating personal tab
You can edit any tab online and save it as your Personal.

You can edit, replace or remove any tab part or add personal notes – all changes will be seen only by you.

Personal tabs can be accessed anytime from any device, even offline.
Learn more »
Give kudos to tab author, rate the tab!
1 2 3 4 5
comments
print report bad tab
guest
Wanna post a correction for this tab? Suggest correction