Oops, an error
Loading. Please wait.

El Vivo Sustento Del Inquisidor bass

by V8
116 views 3 this week
no commentswrite comment
1 2 3 4 5
3 more votes to show rating
add to favorites
×
Save as Personal and add changes to this tab that will be seen only by you. Learn more ›
×
You can save this tab as Personal to edit and correct it or add notes. All changes will be seen only by you. Learn more »
launch autoscroll
font size
0
reset
guitar tuner
edit
Autoscroll
slow
fast
+/-
esc
set tempo
stop
0:22
             (2 veces)
G|---------------------------------|
D|---------------------------------|
A|--------------------------3------|
E|-0---------------0---------------|

G|-------------------------------------------------------------------7-
D|---------------0-5-------------------------------0-5-----------5-4--- Parte
A|-7-7|7|7-7|7|7------7-7|7|7--5--0--7-7|7|7-7|7|7------7-7|7|7--------   A
E|---------------------------------------------------------------------

            (6 vueltas)
G|----------------------------------|
D|---------------0-5----------------| Parte
A|-7-7|7|7-7|7|7------7-7|7|7--5--0-|   B
E|----------------------------------|

    ?sin ser parte de la confusion?
G|-----------------------------------------5--
D|---------------------------------------5---5
A|-3-3|3|3-3|3|3-3|3|3-3|3|3-3|3|3-3|3|3------
E|--------------------------------------------

    ?que es el vivo sustento del inquisidor?
G|------------------------------------------------------------
D|-0-0|0|0-0|0|0-0|0|0-0|0|0-0|0|0-5--4-----------------------
A|---------------------------------------5--7----5--4---------
E|-----------------------------------------------------5--7---

                            ?que divide y somete con su inposicion?
G|----------------------------5---------------------------
D|---------------5--4----------------------------------5--
A|---------------------5---3----3-3|3|3--5-5|5|5----------
E|-5--3--2--0--------------------------------------7------

Repite parte A. Despues:

            (3 vueltas)
?pondras fin a todo temor?           ?que nos mantiene aquí?
G|----------------------------------|----------------------------------
D|---------------0-5----------------|---------------0-5----------------
A|-7-7|7|7-7|7|7------7-7|7|7--5--0-|-7-7|7|7-7|7|7------7-7|7|7--5----
E|----------------------------------|--------------------------------5/

    ?ignorantes de lo espiritual?
G|--------------------------------------------
D|--------------------------------------------
A|-3-3|3|3-3|3|3-3|3|3-3|3|3-3|3|3-3|3|3-3|3|3
E|--------------------------------------------

    ?herederos del viejo interes personal?
G|------------------------------------------------------------
D|-5-5|5|5-5|5|5-5|5|5-5|5|5-5|5|5-5--4-----------------------
A|---------------------------------------5--7----5--4---------
E|-----------------------------------------------------5--7---

                            ?adictos a la carne y su baja?    (4 veces)
G|----------------------------5---------------------------|-----------------|
D|---------------5--4----------------------------------5--|-----------------|
A|---------------------5---3----3-3|3|3--5-5|5|5----------|-----------------|
E|-5--3--2--0--------------------------------------7------|-0---------------|

1:56
G|----------------------------------------------------------
D|---------5-4-------------------------5-4---4--------------
A|-------------5---5-5-----5-7-------------5---5-3------5-7-
E|-0---------------------7-----0----------------------7-----

G|------------------------------------------------------------------------
D|---------5-4-------------------------5-4---4--------------------------5-
A|-0-----------5---5-5-----5-7-------------5---5-3---3---3---3-3-3-3-2----
E|-----------------------7-----0------------------------------------------


G|---------------------------------------------------------------------
D|---------------0-5-------------------------------0-5-----------5-4---
A|-7-7|7|7-7|7|7------7-7|7|7--5--0--7-7|7|7-7|7|7------7-7|7|7------5-
E|---------------------------------------------------------------------

G|--------------------------------------------------------------------
D|---------------0-5-------------------------------0-5----------------
A|-7-7|7|7-7|7|7------7-7|7|7--5--0--7-7|7|7-7|7|7------7-7|7|7--5----
E|------------------------------------------------------------------5/

G|--------------------------------------------
D|--------------------------------------------
A|-3-3|3|3-3|3|3-3|3|3-3|3|3-3|3|3-3|3|3-3|3|3
E|--------------------------------------------

G|------------------------------------------------------------
D|-5-5|5|5-5|5|5-5|5|5-5|5|5-5|5|5-5--4-----------------------
A|---------------------------------------5--7----5--4---------
E|-----------------------------------------------------5--7---

G|----------------------------5---------------------------
D|---------------5--4----------------------------------5--
A|---------------------5---3----3-3|3|3--5-5|5|5----------
E|-5--3--2--0--------------------------------------7------

Repite parte A. Despues:

            (3 vueltas)
?conecta tu conciencia al creador?  ?y empezar a vivir??
G|----------------------------------|------------------------------------
D|---------------0-5----------------|---------------0-5------------------
A|-7-7|7|7-7|7|7------7-7|7|7--5--0-|-7-7|7|7-7|7|7------7-7|7|7--5---5/7\
E|----------------------------------|-------------------------------5----

    ?sin ser parte de la confusion?
G|--------------------------------------------
D|--------------------------------------------
A|-3-3|3|3-3|3|3-3|3|3-3|3|3-3|3|3-3|3|3-3|3|3
E|--------------------------------------------

    ?que es el vivo sustento del inquisidor?
G|------------------------------------------------------------
D|-5-5|5|5-5|5|5-5|5|5-5|5|5-5|5|5-5--4-----------------------
A|---------------------------------------5--7----5--4---------
E|-----------------------------------------------------5--7---

                                   ?quien oculta el camino de la evolucion?
G|-----------------------------------------------------------------------------
D|---------------5---4---------------------------------------------------------
A|-----------------------5----3------------5-----------------------------------
E|-5--3--2--0---------------------------------------------0--------------------


El original de este tema esta un cuarto de semitono mas grave que la afinacion
comun (La 440).

     /: slide up (?arrastrar? hacia adelante)
     \: slide down (?arrastrar hacia atrás)
     h: hammer on (ligado)
 x |x : tocar las dos notas consecutivamente rápido por Ej. 5|5


El vivo sustento del inquisidor (Iorio)

Conecta ya tu conciencia al creador,
quien nos dio el existir.
para aislarte del mal y su error,
y empezar a vivir

sin ser parte de la confusión,
que es el vivo sustento del inquisidor.
que divide y somete con su imposición.

Pondrás fin a todo temor, y serás libre así
de la vieja idea material
que nos mantiene aquí.

ignorantes de lo espiritual, herederos del viejo
interés personal
adictos a la carne y su baja ansiedad.

Conecta ya tu conciencia al creador,
quien nos dio el existir.
para aislarte del mal y su error,
y empezar a vivir.

sin ser parte de la confusión,
que es el vivo sustento del inquisidor
quien oculta el camino de la evolución

            
            
Suggest correction
Creating personal tab
Creating personal tab
You can edit any tab online and save it as your Personal.

You can edit, replace or remove any tab part or add personal notes – all changes will be seen only by you.

Personal tabs can be accessed anytime from any device, even offline.
Learn more »
Give kudos to tab author, rate the tab!
1 2 3 4 5
comments
print report bad tab
guest
Wanna post a correction for this tab? Suggest correction