Oops, an error
Loading. Please wait.

El Vivo Sustento Del Inquisidor tab

by V8
42 views 1 this week
no commentswrite comment
1 2 3 4 5
3 more votes to show rating
add to favorites
×
Save as Personal and add changes to this tab that will be seen only by you. Learn more ›
×
You can save this tab as Personal to edit and correct it or add notes. All changes will be seen only by you. Learn more »
launch autoscroll
font size
0
reset
how to read this tab
guitar tuner
edit
Autoscroll
slow
fast
+/-
esc
set tempo
stop
Las partes entre parentesis no estan bien. 

Intro

e|--------------------------------------------------|
B|--------------------------------------------------|
G|-9--------------------9---------------------------| X2
D|-9--12--11------------9--12--11------11--9--------|
A|-7--10---9--12--------7--10---9--12---9--7--10----|
E|------------10---7777------------10----------8----|

Base

Conecta tu conciencia...

e|--------------------------------------|
B|--------------------------------------|
G|--------------------------------------|
D|-9--7--9--7-----9--7--9----(10-9---)--|
A|----------5--7--7--5--7----(-----10)--|
E|-------------5------------------------|

Sin ser parte... Inquisidor...

e|------------------------------------|
B|------------------------------------|
G|------------------------------------|
D|-9--7--9--7-----9--7--9--7-----9----|
A|-7--5--7--5--7--7--5--7--5--7--7----|
E|-------------5--------------5-------|

e|--------------------------------------------------------|
B|--------------------------------------------------------|
G|--------------------------------------------------------|
D|--7-----5-------------7--------------------------9------|
A|--5--7--3333333333333-5555555555555555-----------777----|
E|-----5--------------------------------------------------| 

Quien divide y...

e|------------------------------------------------------------|
B|------------------------------------------------------------|
G|------------------------------------------------------------|
D|--7--------------------(7-5-4-5)--5------7--------9---------|
A|--5--7--9--7--5--4--2-------------333333-55555555-7777777---|
E|-----5--7--5--3--2--0---------------------------------------| 

Se repite todo (Antes, durante y despues del solo)

Conecta tu conciencia
al creador quien nos dio el existir.
Para aislarte del mal y su error
y empezar a vivir.
Sin ser parte de la confusión,
Que es, el vivo sustento del inquisidor.
Quien divide y somete con su imposicion.


Pondras fin a todo temor
y serás libre al fin
De la vieja idea material
Que nos mantiene aqui.
Ignorantes de lo espiritual
herederos del viejo interes personal.

Adictos a la carne y su baja ansiedad.
Conecta tu conciencia al creador
quien nos dio el existir.
Para aislarte del mal y su error
y empezar a vivir.
Sin ser parte de la confusión,
Que es, el vivo sustento del inquisidor.
Quien oculta el camino de la evolución.

            
            
Suggest correction
Creating personal tab
Creating personal tab
You can edit any tab online and save it as your Personal.

You can edit, replace or remove any tab part or add personal notes – all changes will be seen only by you.

Personal tabs can be accessed anytime from any device, even offline.
Learn more »
Give kudos to tab author, rate the tab!
1 2 3 4 5
comments
print report bad tab
guest
Wanna post a correction for this tab? Suggest correction