Oops, an error
Loading. Please wait.

Hiena De Metal bass

by V8
55 views 1 this week
no commentswrite comment
1 2 3 4 5
3 more votes to show rating
add to favorites
×
Save as Personal and add changes to this tab that will be seen only by you. Learn more ›
×
You can save this tab as Personal to edit and correct it or add notes. All changes will be seen only by you. Learn more »
launch autoscroll
font size
0
reset
guitar tuner
edit
Autoscroll
slow
fast
+/-
esc
set tempo
stop
Las tres partes que marque sirven para todo el tema. Puse todas las vueltas
igualmente por las dudas.


G|-------------------------------
D|----------------------5-5--5---
A|-------------------------------
E|-6-3----6-3----6-3------------5

                                                                            \
G|------------------------------------------------------------------------- |
D|------------------------------------------------------------------5--5--- |
A|------------------------------------------------------------------------- |
E|-3-3-3-3-3--3--6-3--3-3-3-3-3--3--6-3--3-3-3-3-3--3--6-3--3-3-3-3-------6 |
                                                                            |
       ?Ya se acerca infernal, la sangrienta hiena de metal?                |
G|----------------------------------------------------------------------    |
D|----------------------------------------------------------------------    |
A|----------------------------------------------------------------------    |
E|-3-----3---3---6-3--------3---3---6-3--------3---3---6-3---6--3--6-3-6    |
                                                                            |
    ?a las yeguas violara, y a los blandos matara?                          |
G|----------------------------------------------------------------          |
D|--------------------------7--7-7--7--------7--7---7--5----------          |
A|------------3-------------------------------------------7--6-5--          |
E|-5--------5----3-5------------------5---5----------------------6          |
                                                                            /

G|-------------------------------------------------------------------------
D|------------------------------------------------------------------5--5---
A|-------------------------------------------------------------------------
E|-3-3-3-3-3--3--6-3--3-3-3-3-3--3--6-3--3-3-3-3-3--3--6-3--3-3-3-3-------6

       ?es la hora de correr, pues de muerte tiene sed?
G|----------------------------------------------------------------------
D|---------------------------------------------------------------5-5-5-5
A|----------------------------------------------------------------------
E|-3-----3---3---6-3--------3---3---6-3--------3---3---6-3---6----------

    ?repugnante es su crueldad, en su mente no hay nada mas?
G|----------------------------------------------------------------
D|--------------------------7--7-7--7--------7--7---7--5----------
A|------------3-------------------------------------------7--6-5--
E|-5--------5----3-5------------------5---5----------------------6

(durante el solo de guitarra)
G|-------------------------------------------------------------------------
D|-------------------------------------------------------------------------
A|-------------------------------------------------------------------------
E|-3-3-3-3-3--3--6-3--3-3-3-3-3--3--6-3--3-3-3-3-3--3--6-3--3-3-3-3-3-3-3-3

G|----------------------------------------------------------------
D|-----------------------------7-7--7---------------7--5----------
A|---------------3----------------------------------------7--6-5--
E|-5---5--5--5-----5---5--------------5---5--5--5----------------6


G|-------------------------------------------------------------------------
D|------------------------------------------------------------------5--5---
A|-------------------------------------------------------------------------
E|-3-3-3-3-3--3--6-3--3-3-3-3-3--3--6-3--3-3-3-3-3--3--6-3--3-3-3-3-------6

       ?ya se acerca sin temor, es la diosa de la perversión?
G|----------------------------------------------------------------------
D|----------------------------------------------------------------------
A|----------------------------------------------------------------------
E|-3-----3---3---6-3--------3---3---6-3--------3---3---6-3---6--3--6-3-6

    ?repugnante es su crueldad, en su mente no hay nada mas?
G|----------------------------------------------------------------
D|---------7--7-----------7-7-7--7--7-----7-7-7--7--7--5----------
A|---------------3----------------------------------------7--6-5--
E|-5---------------5------------------5--------------------------6

G|-------------------------------------------------------------------------
D|-------------------------------------------------------------------------
A|-------------------------------------------------------------------------
E|-3-3-3-3-3--3--6-3--3-3-3-3-3--3--6-3--3-3-3-3-3--3--6-3--3-3-3-3-3-3-3-3


G|----------------------------------------------------------------
D|--------------------------------------------------7--5----------
A|---------------3-----------7--7---3--------7--7---------7--6-5--
E|-5------5--5-----5---5--5-----------5---5----------------------6

G|-----------------------------------------------------------------------------
D|-----------------------------------------------------------------------------
A|-----------------------------------------------------------------------------
E|-3-3-3-3-3--3--6-3--3-3-3-3-3--3--6-3--3-3-3-3-3--3--6-3--3-3-3-3-3--3--6-3--


El original de este tema esta un cuarto de semitono mas grave que la afinacion
comun (La 440).

            
            
Suggest correction
Creating personal tab
Creating personal tab
You can edit any tab online and save it as your Personal.

You can edit, replace or remove any tab part or add personal notes – all changes will be seen only by you.

Personal tabs can be accessed anytime from any device, even offline.
Learn more »
Give kudos to tab author, rate the tab!
1 2 3 4 5
comments
print report bad tab
guest
Wanna post a correction for this tab? Suggest correction