Oops, an error
Loading. Please wait.

La Gran Ramera bass

by V8
80 views 1 this week
no commentswrite comment
1 2 3 4 5
3 more votes to show rating
add to favorites
×
Save as Personal and add changes to this tab that will be seen only by you. Learn more ›
×
You can save this tab as Personal to edit and correct it or add notes. All changes will be seen only by you. Learn more »
launch autoscroll
font size
0
reset
guitar tuner
edit
Autoscroll
slow
fast
+/-
esc
set tempo
stop
0:07
G|-----------------------------------------14--14--14|14|14|14|14\-
D|-7-----------7------------7-----------14-------------------------
A|-7-----------7------------7-----------12-------------------------
E|-5-----------5------------5--------------------------------------

                          (2 vueltas)
G|--------------------------------------------------------------------|
D|--------------------------------------------------------------------| Parte
A|-0--0--0--0--0-0--0--0--0--0--3-2-0--0--0--0--3-2-0--0--0--0--0--1--|   A
E|--------------------------------------------------------------------|

             (4 vueltas)
?Tu sembrado temor conduce al desvío?
G|-----------------------------------|
D|--------------------------3--3---3-| Parte
A|-0-0-0-0-0-0-0-0-3--3---3----------|   B
E|-----------------------------------|

    ?La razón,aguarda tu caída?       ?tu ocultar,te viene a condenar?  \
G|-------------------------------------------------------------------   |
D|------------------3-3-3-3-3-3-3-3-----------------------------5--5-   |
A|-5--5--5--5--5--5-----------------5--5--5--5--5--5--3--3-----------   |
E|-----------------------------------------------------------3-------   |
                                                                        |Parte
    ?descubrí la farsa de tu engaño?  ?se muy bien que aún hay mucho?   |  C
G|--------------------------------------------------------------------- |
D|------------------3-3-3-3-3-3-3-3------------------------------------ |
A|-5--5--5--5--5--5-----------------5--5--5--5--5--5--3--3----------10\ |
E|-----------------------------------------------------------3--3--/--- |
                                                                        /
     ?podra el hombre amar cuando no existas,tendrá libre?   \
G|-----------------------------------------------------      |
D|-----------------------------------------------------      |
A|-2--2--2--2--2--2--2--2--2--2--2--2--2--2--2--2--2--2      |
E|-----------------------------------------------------      |
                                                             | Parte
?la mente?                                                   |   D
G|--------------------------------------------------------   |
D|--------------------------------------------------------   |
A|5--5|5|5|5|5|5--5|5|5|5|5|5--5|5|5|5|5|5|5|5|5|5|5|5|5|5   |
E|--------------------------------------------------------   |
                                                             /
Repite parte D, A (1 vuelta). Despues durante el solo de guitarra:

                                                                           \
G|------------------------------------------------------------------------ |
D|------------------------------------------------------------------------ |
A|-2--2--2--2--2--2--2--2--2--2--2--2--2--2--2--2--2--2--2--2--2--2--3--4- |
E|------------------------------------------------------------------------ |
                                                                          Parte
G|------------------------------------------------------------------------ |E
D|------------------------------------------------------------------------ |
A|-5--5--5--5--5--5--5--5--5--5--5--5--5--5--5--5--5--5--5--5--5--5--5--5- |
E|------------------------------------------------------------------------ |
                                                                           /

Repite parte E, A (2 vueltas),B , C, D (2 vueltas), A (1 vuelta). Despues:

                                                            (4 veces)
G|------------------------------------------------------|----------------|
D|------------------------------------------------------|----------------|
A|-2--2--2--2--2--0--3--3--3--3--3--0--5--5--5--5--5/15-|----------------|
E|------------------------------------------------------|-5--3--5--------|

G|--------------------------------------------
D|-5------------------------------------------
A|-5------------------------------------------
E|-3------------------5---3---5---------------

El original de este tema esta un cuarto de semitono mas grave que la afinacion
comun (La 440).

     /: slide up (?arrastrar? hacia adelante)
     \: slide down (?arrastrar hacia atrás)
x |x : tocar las dos notas consecutivamente rápido por Ej. 5|5

La Gran Ramera (Iorio-Zamarbide-Roldan-Cenci)

Tu sembrado temor
conduce al desvío.
Veo en tus manos,
la guerra y su rumor.
El tropiezo llegó,
cerca está el día.
Ya se respira,
la falta de amor.

La razón,
aguarda tu caída
Tu ocultar,
te viene a condenar.
Descubrí la farsa
de tu engaño,
se muy bien
que aún hay mucho mas.

Podra el hombre amar,
cuando no existas.
Tendrá libre la mente.
Lo exterior morirá
con la injusticia,
que salió de tu vientre.

            
            
Suggest correction
Creating personal tab
Creating personal tab
You can edit any tab online and save it as your Personal.

You can edit, replace or remove any tab part or add personal notes – all changes will be seen only by you.

Personal tabs can be accessed anytime from any device, even offline.
Learn more »
Give kudos to tab author, rate the tab!
1 2 3 4 5
comments
print report bad tab
guest
Wanna post a correction for this tab? Suggest correction