Oops, an error
Loading. Please wait.

La Gran Ramera chords

by V8
61 views 1 this week
no commentswrite comment
1 2 3 4 5
3 more votes to show rating
add to favorites
×
Save as Personal and add changes to this tab that will be seen only by you. Learn more ›
×
You can save this tab as Personal to edit and correct it or add notes. All changes will be seen only by you. Learn more »
launch autoscroll
font size
0
reset
transpose
0
reset
simplify chords
display chords
guitar tuner
edit
Autoscroll
slow
fast
+/-
esc
set tempo
stop
Strumming
There is no strumming pattern for this song yet. and get +5 IQ
INTRO: X4
e|---------------------------------------------------|
B|---------------------------------------------------|
G|-------------------5-------------------------------|
D|----7^0-5^0-4^0----5-----7^0-5^0-4^0--4^5^7^5^4----|
A|--0--------------0-----0------------------------5--|
E|---------------------------------------------------|

e|-----------------------------------------------|
B|-----------------------------------------------|
G|-------------------5---------------------------|
D|----7^0-5^0-4^0----5-----7^0-5^0-4^0--0^4-5aa--|
A|--0--------------0-----0-----------------------|
E|-----------------------------------------------|


A5                    C5    F5
Tu sembrado temor conduce al desvío,

A5                    C5    F5
veo en tus manos la guerra y su rumor,

A5                    C5    F5
el tropiezo llegó, cerca está el día,

A5                    C5    F5
ya se respira la falta de amor.

D5              Bb5
La razón aguarda tu caída,

D5                 C5      G5
tu ocultar te viene a condenar,

D5              Bb5
descubrí la farza de tu de engaño,

D5              C5       G5
sé muy bien que hay mucho más.

B5
Podrá el hombre amar cuando no existas,

                 D5
tendrá libre la mente,

B5
lo exterior morirá con la injusticia

                 D5
que salió de tu vientre.


COMO INTRO

SOLO GUITARRA

COMO INTRO


Tu sembrado temor conduce al desvío,
veo en tus manos la guerra y su rumor,
el tropiezo llegó, cerca está el día,
ya se respira la falta de amor.
La razón aguarda tu caída,
tu ocultar te viene a condenar,
descubrí la farza de tu de engaño,
sé muy bien que hay mucho más.
Podrá el hombre amar cuando no existas,
tendrá libre la mente,
lo exterior morirá con la injusticia
que salió de tu vientre.


COMO INTRO

FINAL:
D5
A5/ G5/ A5

            
            
Suggest correction
Creating personal tab
Creating personal tab
You can edit any tab online and save it as your Personal.

You can edit, replace or remove any tab part or add personal notes – all changes will be seen only by you.

Personal tabs can be accessed anytime from any device, even offline.
Learn more »
Give kudos to tab author, rate the tab!
1 2 3 4 5
comments
print report bad tab
guest
Wanna post a correction for this tab? Suggest correction