Oops, an error
Loading. Please wait.

Lanzado Al Mundo De Hoy bass

by V8
150 views 1 this week
no commentswrite comment
1 2 3 4 5
3 more votes to show rating
add to favorites
×
Save as Personal and add changes to this tab that will be seen only by you. Learn more ›
×
You can save this tab as Personal to edit and correct it or add notes. All changes will be seen only by you. Learn more »
launch autoscroll
font size
0
reset
guitar tuner
edit
Autoscroll
slow
fast
+/-
esc
set tempo
stop
                     (2 vueltas)
G|-------------------------------------------2----------|
D|-------7-6-7---------3-2-3--------5-4-5------5-3-2-3--|
A|-0--5----------0--1---------1--3----------------------|
E|------------------------------------------------------|

G|---------------------3-2-3--------5-4-5----2----------
D|-------7-6-7---------------------------------5-3-2-3--
A|-0--5----------0--1---------1--3----------------------
E|------------------------------------------------------

G|----7--5--------------------------------
D|-7--------8-8p7--8-8p7--5---------------
A|--------------------------8--8--7--5--3-
E|----------------------------------------

               (2 vueltas)
G|------------------------------------------|
D|-0---3-2-3-------3-2-0---3-2-3------------| Parte
A|------------3-3--------------------1---3--|   A
E|------------------------------------------|

 ?Ya la tempestad?               ?lanzandome al mundo hoy?
G|-------7-------------------3--3------------5----------7---7---2223-
D|-----------------------------------------4---3--------------3------
A|-5---5---5---5---1---1---1---1---3---3---------3--5----------------
E|-------------------------------------------------------------------

  ?y la realidad?            ?me muestra su cruel verdad?
G|-----------3---------------5-----2--------------
D|---------------------3---4---4-------5---3---2--
A|-1---1---1---1---3-----3-------3----------------
E|------------------------------------------------

Repite parte A. Despues:

 ?harto de ideales?                     ?a esta altura quien soy yo?
G|-----------------------3-2-3-2-------------------5---------7-6-7--7---7-
D|------------------------------5--3--2----------4---3--------------------
A|-5---5---5---5---1---1-----------------3---3-3-------3-5----------------
E|------------------------------------------------------------------------

?azotes de mal?               ?ya dios no nos conduce hoy?
G|-------3---3----------------5-----2--------------
D|--------------------------4---4-------5---3---2--
A|-1---1---1---1----3---3---------3----------------
E|-------------------------------------------------

Repite parte A. Despues durante el solo de guitarra:

G|-----------------------------2-3---------------2------------------
D|---------------------------3-----------------------5-2-3-3p2------
A|-5---5---5---5---1---1---1-------5------1--------------------5--3-
E|------------------------------------------------------------------

G|---------------------------------3---2---------------
D|-----2--3------2--3----------------------5-2-3-3p2---
A|-5---------5---------1---1---1---------------------5-
E|-----------------------------------------------------

G|-------------------------------------------2----------
D|---------------------------------------------5-3-2-3--
A|-0--5----------0--1---------1--3----------------------
E|------------------------------------------------------

G|----7--5--------------------------------
D|-7--------8-8p7--8-8p7--5---------------
A|--------------------------8--8--7--5--3-
E|----------------------------------------

Repite parte A (6 vueltas)

?se asombran aun mas ante?                  ?pues no les dejan pensar?
G|----7--7------7----3-----3---------------5-----5-----------7-7-7----7-7-77777
D|------------6---------------3-2--------4-----4---------------------7---------
A|5-------5------1-----1-1-------1---3-------3-----3--5-5-5---------5----------
E|-----------------------------------------------------------------------------

?que son herramientas manejadas por perversas mentes que construyen el?
G|-----3-----3-3---------5----5-------------------
D|---------------------4----4---4/7---5--2--3---2-
A|-1-----1-1-------3------------------------------
E|------------------------------------------------

?final?
G|-------------------------------------------2----------
D|---------------------------------------------5-3-2-3--
A|-0--5----------0--1---------1--3----------------------
E|------------------------------------------------------

G|---------------------3-2-3--------5-4-5----2----------
D|-------7-6-7---------------------------------5-3-2-3--
A|-0--5----------0--1---------1--3----------------------
E|------------------------------------------------------

G|----7--5-------------------------------------
D|-7--------8-8p7--8-8p7--5--------------------
A|--------------------------8--8--7--5--3--5---
E|---------------------------------------------


El original de este tema esta un cuarto de semitono mas grave que la afinacion
comun (La 440).

 p: pull off (ligado hacia atras)
 h: hammer on (ligado)


Lanzado al mundo hoy (Iorio)

Ya la tempestad, ha reabierto mis heridas
lanzandome al mundo hoy.
Y la realidad, de una tierra hostil y fría
me muestra su cruel verdad.

Harto de ideales, que padecen en la ira
a esta altura, quien soy yo.
Azotes de mal, son, que envía Satán
ya Dios no los conduce hoy.

Se asombran aún más, ante el son del
Heavy Metal! Pues no les dejan pensar
que son herramientas, manejadas
por perversas mentes que construyen el final!

            
            
Suggest correction
Creating personal tab
Creating personal tab
You can edit any tab online and save it as your Personal.

You can edit, replace or remove any tab part or add personal notes – all changes will be seen only by you.

Personal tabs can be accessed anytime from any device, even offline.
Learn more »
Give kudos to tab author, rate the tab!
1 2 3 4 5
comments
print report bad tab
guest
Wanna post a correction for this tab? Suggest correction