Oops, an error
Loading. Please wait.

Momento De Luchar bass

by V8
63 views 1 this week
no commentswrite comment
1 2 3 4 5
3 more votes to show rating
add to favorites
×
Save as Personal and add changes to this tab that will be seen only by you. Learn more ›
×
You can save this tab as Personal to edit and correct it or add notes. All changes will be seen only by you. Learn more »
launch autoscroll
font size
0
reset
guitar tuner
edit
Autoscroll
slow
fast
+/-
esc
set tempo
stop
        (4 veces)
G|------------------------|
D|---------------------2--| Parte
A|-2|2|2|2|2|2|2|5--4-----|   A
E|------------------------|

                  (4 veces)
 ?ya?              ?de engaños?        ?el pre-
G|---------------------------------------------|
D|------------------------------------------2--| Parte
A|-2|2|2|2|2|2|2|5------2|2|2|2|2|2|2|5--4-----|   B
E|---------------------------------------------|

      ?pues estoy candado del llanto que el nunca algo me dio?
G|-------------------------------------------------------
D|-------------------------------------------------------
A|-0-0--0-0-0--0-2-2--2-2-2--2-0-0--0-0-0--0-2-2--2-2-2--
E|-------------------------------------------------------

      ?de la calma y la paciencia ante la represion?
G|---------------------------------------------4----------
D|------------------------------------------------------2-
A|-----------------------------------------2------5--4----
E|-2-2--2-2-2--2-3-3--3-3-3--3-5-5--5-5-5-----------------

Repite parte A (3 vueltas), B. Despues:

      ?pues estoy casado del llanto que el nunca algo me dio?
G|-------------------------------------------------------
D|-------------------------------------------------------
A|-0-0--0-0-0--0-2-2--2-2-2--2-0-0--0-0-0--0-2-2--2-2-2--
E|-------------------------------------------------------

      ?de la calma y la paciencia ante la represion?
G|-----------------------------------------------4------
D|---------------------------------------------4----4---
A|-----------------------------------------2----------2-
E|-2-2--2-2-2--2-3-3--3-3-3--3-5-5--5-5-5---------------

 ?ya es muy    ?tarde?       ?para soñar?
G|------------------------------------------------------
D|-2-2--2-2-2--2-----------------------------2-2--2-2-2-
A|---------------3-3--3-3-3--3-5-5--5-5-5--5------------
E|------------------------------------------------------
 ?es?     ?el momento?       ?de despertar?
G|-----------------------------------------------9--7--9
D|-2-2--2-2-2--2-------------------------------9--------
A|---------------3-3--3-3-3--3-5-5--5-5-5--7------------
E|------------------------------------------------------
?las palabras y las flores nada pudieron cambiar,es el momento?
G|---------------------------------------------------------
D|---------------------------------------------------------
A|-3-3--3-3-3--3-5-5--5-5-5---7-7--7-7--3-3-------5--------
E|---------------------------------------------------------

Repite parte A. Despues:

               (2 veces)                     \
G|----------------------------------------|  |
D|---------5---------5-----------9-8-7----|  |
A|-7-7|7|7---7-7|7|7---7-7|7|7---------10-|  |
E|----------------------------------------|  |
                                             |Parte
               (2 veces)                     |  C
G|----------------------------------------|  |
D|----------------------------------------|  |
A|---------5---------5-----------9-8-7----|  |
E|-7-7|7|7---7-7|7|7---7-7|7|7---------10-|  |
                                             /

Repite parte C (2 veces). Despues:

G|----------------------------------------------------------------
D|----------------------------------------------------------------
A|-----5--4--7----5--4--7----5--4--7----5---4---5---7-------------
E|-7--------------------------------------------------------------

G|------------------4-4-4-4-4-4-4-4-?-----------
D|----------------------------------------------
A|-2-2-2-2-2-2-2-2-?------------------2---------
E|----------------------------------------------

El original de este tema esta un cuarto de semitono mas grave que la afinacion
comun (La 440).

x|x : tocar las dos notas consecutivamente rápido por Ej. 7|7

Momento de luchar (Iorio)

Basta de engaños, el presente es dolor.
Y yo vivo la realidad,
y de ella es mi reacción.
Pues estoy cansado del llanto
que nunca algo me dió.
De la calma, y la paciencia
ante la represión.
Me reiré al ver sus caras
expresando el dolor
producido por la blanca fuerza
de nuestra unión.
Pues estoy cansado del llanto
que nunca algo me dió.
De la calma, y la paciencia
ante la represión.
Ya es muy tarde, para soñar
es el momento de despertar
Las palabras y las flores,
nada pudieron cambiar
es el momento de luchar.

            
            
Suggest correction
Creating personal tab
Creating personal tab
You can edit any tab online and save it as your Personal.

You can edit, replace or remove any tab part or add personal notes – all changes will be seen only by you.

Personal tabs can be accessed anytime from any device, even offline.
Learn more »
Give kudos to tab author, rate the tab!
1 2 3 4 5
comments
print report bad tab
guest
Wanna post a correction for this tab? Suggest correction