Oops, an error
Loading. Please wait.

Reina Ciega bass

version 1
version 1

Whole song

by V8
62 views 3 this week
no commentswrite comment
1 2 3 4 5
3 more votes to show rating
add to favorites
×
Save as Personal and add changes to this tab that will be seen only by you. Learn more ›
×
You can save this tab as Personal to edit and correct it or add notes. All changes will be seen only by you. Learn more »
launch autoscroll
font size
0
reset
guitar tuner
edit
Autoscroll
slow
fast
+/-
esc
set tempo
stop
Buenas...Aca les dejo mi version sacada de mucho oido de este
Gran tema de V8!
Aguante V8!

*Entra en la bata con los siguientes notas en los golpes
G|------------------------------------------------|
D|------------------------------------------------|
A|--2--2----------5------2-------5-4------5-4-----|
E|-----------3-----------------------3--------5---| X2

**Ahora es BAse:

G|------------------------|------------------------|
D|-------4---------2------|------4-----------------|
A|--2-2----5--5-4-------5-|-2-2----5---4-5----4-5--|
E|--------------------3---|----------------3------5| X2

Para finalizar esa base(como opcional):
|-----------------------------|
|-----------------------------|
|-------------/--12-12-12-12--|
|---5-5-5-5-5-----------------|

Estrofa 1:

  B           G             A
Con los pies sobre rotas veredas
  B            G    A
de custodiados barrios,
  B           G             A
desperté viendo a la reina ciega,
  B              G   A
revolcarse en el barro.

Estrofa 2:

 A                 B
Matando el cuerpo
 B
de quien la quiso auxiliar,
 A
y consintiendo
 F
a quien goza con su mal.

**(base de la intro)
pues, no sabe amar

pues, no quiere amar.

(Estrofa 1)
Me alejé de la densa esfera
que adormece en su llanto,
para oír de la palabra eterna
comprensión y encanto.

(Estrofa 2)
Lenguas de fuego vibran
junto al sembrador,
quien ya está presto
para cosechar amor.

1°Base del Solo:

|------------------------------------------------|
|------4-4--5-5--7-7-7-7-7-----------------------|
|-2-2----------------------5-5-5-5-5-7-7-7-7-7---|
|------------------------------------------------|x2

en la segunda Finaliza asi...hasta F#.

|----------------------------|
|----------------------------|
|--9-9-9-9-9-9-/-16-16-16-16-|
|----------------------------|

2° Base del Solo              Y mete este arreglo:

G|------------------------|----------------------------------|
D|-------4---------2------|-------4----2-4-5--4-2------------|
A|--2-2----5--5-4-------5-|--2-2----5--------------0---------|
E|--------------------3---|----------------------------3-5-3-|

Final del Solo como Base de intro **:

G|------------------------|------------------------|
D|-------4---------2------|------4-----------------|
A|--2-2----5--5-4-------5-|-2-2----5---4-5----4-5--|
E|--------------------3---|----------------3------5|

(Estrofa 1):

Comprendí que el miedo a la muerte,
solo es para el culpable.
Que sin mas que creerse un cuerpo,
nunca sus manos abre.

(Estrofa 2)

Lenguas de fuego vibran
junto al sembrador,
quien ya está presto
para cosechar amor.

Darse es amor.
G|------------------------|------------------------|
D|-------4---------2------|------4-----------------|
A|--2-2----5--5-4-------5-|-2-2----5---4-5----4-5--|
E|--------------------3---|----------------3------5|

hasta finalizar.


Gente: espero que les haya servido mi humilde aporte.
Les dejo la pagina web de mi banda...escuchenla,
tiene los temas online.

>>>>   >>>>

Una abrazo desde Corrientes Capital,Argentina!

AGUANTE V8!!!
Suggest correction
Creating personal tab
Creating personal tab
You can edit any tab online and save it as your Personal.

You can edit, replace or remove any tab part or add personal notes – all changes will be seen only by you.

Personal tabs can be accessed anytime from any device, even offline.
Learn more »
Give kudos to tab author, rate the tab!
1 2 3 4 5
comments
print report bad tab
guest
Wanna post a correction for this tab? Suggest correction