Oops, an error
Loading. Please wait.

Si Puedes Vencer Al Temor bass

by V8
178 views 3 this week
no commentswrite comment
1 2 3 4 5
3 more votes to show rating
add to favorites
×
Save as Personal and add changes to this tab that will be seen only by you. Learn more ›
×
You can save this tab as Personal to edit and correct it or add notes. All changes will be seen only by you. Learn more »
launch autoscroll
font size
0
reset
guitar tuner
edit
Autoscroll
slow
fast
+/-
esc
set tempo
stop
0:12
G|-------------------------------------------------
D|-----7-----7--------7-----7--------------------5-
A|-0--0--7--0--7--0--0--7--0--7--5---8---7---7-8---
E|-------------------------------------------------

G|-----------9--------------------------------------9-----9-9-9-9-
D|--------------------------------------5---------------9---------
A|-5---8---7---7--7--7--5---8---7---7-8---5---8---7---7-----------
E|----------------------------------------------------------------

          x3
G|-------------------|-----------9-----9-9-9-9-|-------------------
D|-----------------5-|---------------9---------|-----------------5-
A|-5---8---7---7-8---|-5---8---7---7-----------|-5---8---7---7-8---
E|-------------------|-------------------------|-------------------

G|----------9----9--------------------------------------------------------
D|--------------------------------------5---------------------------------
A|-5---8---7---7--7-7-7-5---8---7---7-8----5---8---5-5-5-0-0-0------------
E|-------------------------------------------------------------3-3-3-1-1-1

                                                      x3
?En medio de la noche esta esperandote?      ?aguarda el momento que?
G|-----------------------------9---9---------|-------------------|
D|-----------------5-------------------9-9-9-|-----------------5-|
A|-5---8---7---7-8----5---8---7---7---7------|-5---8---7---7-8---|
E|-------------------------------------------|-------------------|

                                    x3
?mil burlas traera?           ?mil caras?
G|------------9----9-9-9-9-|-------------------|
D|--------------9----------|-----------------5-|
A|-5---8---7--7------------|-5---8---7---7-8---|
E|-------------------------|-------------------|

                                   x5           ?farse de el?
G|-----------9-----9-9-9-9-|-------------------|--------------9----9----9--
D|---------------9---------|-----------------5-|---------------------------
A|-5---8---7---7-----------|-5---8---7---7-8---|-5---8---7-5/7--5/7--5/7--7
E|-------------------------|-------------------|---------------------------

         x19
?ignora sus fuerzas?                                   x12
G|-------------------|-----------9-----9-9-9-9-|-------------------|
D|-----------------5-|---------------9---------|-----------------5-|
A|-5---8---7---7-8---|-5---8---7---7-----------|-5---8---7---7-8---|
E|-------------------|-------------------------|-------------------|

3:53
G|------------------------------------------------------------------
D|------------------------------------------------------------------
A|-5-5---5---5----5-5---5---5----5-5--------------------------------
E|------------------------------------8--7--5--3--1/2--------1/2----

G|----------------------------------------------------------------
D|----7-7-7-----------7-7-7-----------7-7-7-----------7-7-7-------
A|-0---------6--7--0---------------0---------6--7--0--------------
E|---------------------------3--3---------------------------------

G|-----------------------------------------
D|----------------------------------------- Parte
A|-0---0---0-----3--2--0---0---0-----3--2--   A
E|-----------------------------------------

                 x2
?honda pesadilla se desencadenará?
G|---------------------------------|
D|---------------------------------|
A|-0-0-0-0-0-0-0-0-7-7-7-7|8-8-8-8-|
E|---------------------------------|

?suenan las campanas,se aproxima ya,la horrenda figura del?
G|-------------10------------10---10----------------
D|-----------9------------------9-------------------
A|--------8---------------8-----------------8---10--
E|-7-7-7-7---------7-7-7-7-----------7-7-7-7--------

Repite parte A. Despues:

?miserables llantos claman por piedad, una pura vida llegó a su final?
G|-------------------------------10--------------------------------10--
D|----------------------------10--------------------------------10-----
A|-0-0-0-0-0-0-0-0-7-7-7-7|8---------0-0-0-0-0-0-0-0-7-7-7-7|8---------
E|---------------------------------------------------------------------

?una nueva victima para Satanas marco la daga del mal?
G|------------------------------------------------
D|------------------------------------------------
A|--------8--8-8-8--------8--8-8-8--------8---10--
E|-7-7-7-7---------7-7-7-7---------7-7-7-7--------

Repite parte A. Despues:
                                         x4
G|--------------------------------|-----------------|
D|--------------------------------|--------8--8-8-8-|
A|-0-0-0-0-0-0-0-0-0-0-0-0-0-0-0--|-7-7-7-7---------|
E|--------------------------------|-----------------|

G|-------------------------------------------------12-12-12-12-12-12-12-12-
D|---------------------------------7-7-7-7-7-7-7-7-------------------------
A|-0-0-0-0-0-0-0-0-0-0-0-0-0-0-0-0-----------------------------------------
E|-------------------------------------------------------------------------

         x4                         x7
G|-----------------|--------------------------------|
D|--------8--8-8-8-|-----7---------------7-------5\-|
A|-7-7-7-7---------|-0-------6---7---0--------------|
E|-----------------|-------------------------3------|

Repite parte A. Despues:

?nunca te sumerjas en la oscuridad si eres una flor de la virginidad
G|----------------------------------------------------------------10--
D|-------------------------------------------------------------10-----
A|-0-0-0-0-0-0-0-0-7-7-7-7|8--8-8-8-0-0-0-0-0-0-0-0-7-7-7-7|8---------
E|--------------------------------------------------------------------

?manos de verdugos puedes encontrar serás la ofrenda a Satán?
G|-------------10------------10---10-------------------------
D|-----------9------------------9----------------------------
A|--------8---------------8-----------------8---10---0-------
E|-7-7-7-7---------7-7-7-7-----------7-7-7-7-----------------

     /: slide up (?arrastrar? hacia adelante)
     \: slide down (?arrastrar hacia atrás)
   (x): nota opcional
     p: pull off (ligado hacia atras)
     h: hammer on (ligado)
 x |x : tocar las dos notas consecutivamente rápido por Ej. 7|4

Si Puedes Vencer al Temor(Iorio)

En medio de la noche
Está esperándote
Aguarda el momento
Que vayas por él
Mil risas de espejos y burlas traerá
Mil caras y un rostro
El rostro del mal.

No caigas en su garra cruel
Es muy complicado zafarse de él
Ignora sus fuerzas,
lo podrás vencer
Si no lo consigues
Serás parte de él .

Honda pesadilla se desencadenará
Mortajas de humo, tumbas de metal
Suenan las campanas
Se aproxima ya
La horrenda figura del mal

Miserables llantos
Claman por piedad
Una pura vida llegó a su final
Una nueva víctima para Satanás
Marcó la daga del mal

Nunca te sumerjas en la oscuridad
Si eres una flor de la virginidad
Manos de verdugos
Puedes encontrar
Serás la ofrenda a Satán

            
            
Suggest correction
Creating personal tab
Creating personal tab
You can edit any tab online and save it as your Personal.

You can edit, replace or remove any tab part or add personal notes – all changes will be seen only by you.

Personal tabs can be accessed anytime from any device, even offline.
Learn more »
Give kudos to tab author, rate the tab!
1 2 3 4 5
comments
print report bad tab
guest
Wanna post a correction for this tab? Suggest correction