Oops, an error
Loading. Please wait.

Siervos Del Mal bass

by V8
60 views 1 this week
no commentswrite comment
1 2 3 4 5
3 more votes to show rating
add to favorites
×
Save as Personal and add changes to this tab that will be seen only by you. Learn more ›
×
You can save this tab as Personal to edit and correct it or add notes. All changes will be seen only by you. Learn more »
launch autoscroll
font size
0
reset
guitar tuner
edit
Autoscroll
slow
fast
+/-
esc
set tempo
stop
G|-------------------------------------------------------------------
D|-7-7|7-7-7-7-7|7-7-7-7-7|7-7-7-7-7|7-7-7-7-7|7-7-7-7-7|7-7-7-7-7-7-
A|-------------------------------------------------------------------
E|-------------------------------------------------------------------

G|-------------------7----7--------------------7----7------------
D|--------------------10|7-10|7-----7---7--7----10|7-10|7-----7--
A|-7--6--5----0--0-------------9|8|7---------------------9|8|7---
E|---------------------------------------------------------------

G|---------------------7----7------------------------7----7--------------
D|--7-----7-------------10|7-10|7-----7-----7---------10|7-10|7----------
A|-0-0|0|0-0|0|0-------------9|8|7---0-0|0|0-0|0|0-------------9|7-------
E|-----------------------------------------------------------------0-5---

                (2 veces)                        \
G|-----------------------------------------|     |
D|-----------------------------------------|     |
A|-0-0|0|0|0|0|3-2--3-0-0|0|0|0|0|5--6-5-6-|     |
E|-----------------------------------------|     |
                                                 |
              (3 veces)                          |
?En todos los sitios?                            |
G|----------------------------------|            |
D|----------------------------------|            |
A|-0-0-0-0-3--2h3p2-0-0-0-0-5--6p5--|            |
E|----------------------------------|            |
                                                 | Parte
?lucran cuidando que no pienses de mas?          |   A
G|---------------------------------------        |
D|---------------------------------------        |
A|-0-0-0-0-3--2h3p2-0-0-0-0-5---7--------        |
E|---------------------------------------        |
                                                 |
                           (2 veces)             |
G|----------------|--------------------------|   |
G|-------------------------------------------------------------------
D|-7-7|7-7-7-7-7|7-7-7-7-7|7-7-7-7-7|7-7-7-7-7|7-7-7-7-7|7-7-7-7-7-7-
A|-------------------------------------------------------------------
E|-------------------------------------------------------------------

G|-------------------7----7--------------------7----7------------
D|--------------------10|7-10|7-----7---7--7----10|7-10|7-----7--
A|-7--6--5----0--0-------------9|8|7---------------------9|8|7---
E|---------------------------------------------------------------

G|---------------------7----7------------------------7----7--------------
D|--7-----7-------------10|7-10|7-----7-----7---------10|7-10|7----------
A|-0-0|0|0-0|0|0-------------9|8|7---0-0|0|0-0|0|0-------------9|7-------
E|-----------------------------------------------------------------0-5---

                (2 veces)                        \
G|-----------------------------------------|     |
D|-----------------------------------------|     |
A|-0-0|0|0|0|0|3-2--3-0-0|0|0|0|0|5--6-5-6-|     |
E|-----------------------------------------|     |
                                                 |
              (3 veces)                          |
?En todos los sitios de cualquier ciudad?        |
G|----------------------------------|            |
D|----------------------------------|            |
A|-0-0-0-0-3--2h3p2-0-0-0-0-5--6p5--|            |
E|----------------------------------|            |
                                                 | Parte
?lucran cuidando que no pienses de mas?          |   A
G|---------------------------------------        |
D|---------------------------------------        |
A|-0-0-0-0-3--2h3p2-0-0-0-0-5---7--------        |
E|---------------------------------------        |
                                                 |
                           (2 veces)             |
G|----------------|--------------------------|   |
D|----------------|--------------------------|   |
A|-5---5---7------|-5---5----7-7-7-7-7-7-7-7-|   |
E|-3--------------|-3------------------------|   |
                                                 /
Repite parte A

G|----------------------------------------------------------------------
D|----------5-6--6------7-------5-6--6------7-------5-6--5--4--5--4-h5/-
A|-0---3---0-0------0------0---0-0------0------0---0-0------------------
E|----------------------------------------------------------------------

G|------------------------------------------------------------------------
D|-----7-------5-6--6------7-------5-6--6------7-------5-6--5--4--5--4--5-
A|-0------0---0-0------0------0---0-0------0------0---0-0-----------------
E|------------------------------------------------------------------------

               (2 veces)
G|---------------------------------------|----------
D|------------------------------------2--|-2--------
A|-5--3--2-------2|3|2|0|5--3--2-----2---|----------
E|----------0|3|5-----------------0|3----|----------

                          (2 veces)
G|----------------|--------------------------|
D|----------------|--------------------------|
A|-5---5---7------|-5---5----7-7-7-7-7-7-7-7-|
E|-3--------------|-3------------------------|

                                                         (4 veces)
                (8 veces)                  ?no hay dudas son ellos los siervos?
G|-----------------------------------------|----------------------------------|
D|-----------------------------------------|----------------------------------|
A|-0-0|0|0|0|0|3-2--3-0-0|0|0|0|0|5--6-5-6-|-0-0-0-0-3--2h3p2-0-0-0-0-5--6p5--|
E|-----------------------------------------|----------------------------------|


G|----------------------------------------------------------------
D|----------------------------------------------------------------
A|-0-0|0|0|0|0|3-2--3-0-0|0|0|0|0|5--6-5-6-0-0|0|0|0|0|3-2--3-0--2
E|----------------------------------------------------------------

G|-----------------------------------------------------------------------
D|-----------------------------------------------------------------------
A|-2---2---3---4--3--2---2---2---3---4--3--2---------2---2---3---4--3--2-
E|-----------------------------------------------------------------------

G|------------------10---------p9---------------------------------------------
D|------------9--8------------------------------------------------------------
A|-5----8--7------------------------------------------------------------------
E|----------------------------------------------------------------------------


El original de este tema esta un cuarto de semitono mas grave que la afinacion
comun (La 440).

     /: slide up (?arrastrar? hacia adelante)
     p: pull off (ligado hacia atras)
     h: hammer on (ligado)
 x |x : tocar las dos notas consecutivamente rápido por Ej. 0|5


Siervos del mal (Iorio)

En todos los sitios de cualquier ciudad
se encuentran los cerdos babeando maldad.
Son quienes controlan nuestra identidad,
y lucran cuidando que no pienses de más.

Si es amplio tu tiempo, para la reflexión,
ten mucho cuidado, no alces la voz
pues corres un riesgo
es que en nombre de Dios
laven tu cerebro, y no puedas ser vos.

No hay dudas, son ellos
los siervos del mal.
Pequeños ilusos, que se creen más,
cuidando los días, de quien se conformó
con la gran mentira del enemigo.

            
            
Suggest correction
Creating personal tab
Creating personal tab
You can edit any tab online and save it as your Personal.

You can edit, replace or remove any tab part or add personal notes – all changes will be seen only by you.

Personal tabs can be accessed anytime from any device, even offline.
Learn more »
Give kudos to tab author, rate the tab!
1 2 3 4 5
comments
print report bad tab
guest
Wanna post a correction for this tab? Suggest correction