Oops, an error
Loading. Please wait.

Ftk Bass Tab

version 1
version 1

Whole song

Interactive

1,353 views 1 this week
7 commentsread comments
1 2 3 4 5
1 last vote to show rating
add to favorites
launch autoscroll
font size
0
reset
guitar tuner
Autoscroll
slow
fast
+/-
esc
set tempo
stop
Help us to improve Ultimate-Guitar.com Take our survey!
×
Author
Song:FTK

Band:Vagiant

Tuning:Standard

Tabbed By:Shane Davis


Bass Intro
G--------------------------|
D--------------------------|(4X)
A--------------------------|
E-9~~~~2~~~~4--4-4--4--4-4-|

G-----------|
D-7-9-7-----|(1X)
A-------9-7-|
E-----------|

Verse Riff (Play this 4 times)
G--------------------------------------|
D--------------------------------------|
A--------------------------------------|
E-9-9-999-4-2-2-222-4-4-444444444444-6-|

Chorus Riff
G------------------|
D------------------|(3X)
A------------------|
E-6-6-666--2-2-222-|

G------------------------------------|
D------------------------------------|(1X)
A------------------------------------|
E-6-6-666--2-2-222--4-44-44--4-44-44-|

1st Verse Riff Variation (Play this part twice)
G-------------------------------------|
D-------------------------------------|
A-------------------------------------|
E-9-9-999-4-2-2-222-444-444-444-444-6-|

G----------------------------------|
D----------------------------------|
A----------------------------------|
E-9-9-999-4-2-2-222-4--4-4--4--4-4-|

Repeat Chorus

2nd Verse Riff Variation (Play this part twice)
G--------------------------------------|
D--------------------------------------|
A--------------------------------------|
E-9-9-999-4-2-2-222-4-4-444444444444-6-|

G-------------------------------------|
D-------------------------------------|
A-------------------------------------|
E-9-9-999-4-2-2-222-444-444-444-444-6-|

Repeat Chorus

3rd Verse Riff Variation (Play this part twice)
G-------------------------------------|
D-------------------------------------|
A-------------------------------------|
E-9-9-999-4-2-2-222-4--4-4--4--4-4--6-|

G------------------------------------|
D------------------------------------|
A------------------------------------|
E-9-9-999-4-2-2-222-4444444444444444-|

Play the Chorus again but hit and bend a 9 at the end of it.

Bass takes a break for 7 seconds then play the
bass intro again but don't play the riff
that starts with fret 7 on the D string this time.

4th Verse Riff Variation (Play this part 4 times)
G-----------------------------------------|
D-----------------------------------------|
A-----------------------------------------|
E-9-999999-4-2-222222-4-44444444444444--6-|

Outro
G--------------------------------------------------------------------|
D--------------------------------------------------------------------|(2X)
A-9-9-999-4-4-444-6-6-666666666666--9-9-999-2-2-222-4-4-444444444444-|
E--------------------------------------------------------------------|

G------------------------------------|
D---------4-4-4-4-6-6-6-6-6-6--------|(1X)
A-9-9-9-9----------------------------|
E-----------------------------9~~~~~~|

Suggest correction
Give kudos to tab author, rate the tab!
1 2 3 4 5
comments
print report bad tab
7 comments total. Showing first comments.
0 reply
ultimatelefty 1,204 May 21, 2009 05:30 PM

Nice all i really wanted to know was the intero

0 reply
MechaDio 10 Aug 20, 2012 09:17 AM

Question: Which part is the chorus, exactly? I'm getting a little confused once I get there.

0 reply
xxZERO320xx 446 Aug 20, 2012 05:13 PM

Hello, the chorus riff is actually the riff that I called the bridge. It was quite a few years ago that I wrote this tab and it was my very first one so I didn't realize at the time that the riff I was playing is actually the chorus riff. I've submitted an updated version of this tab with everything cleaned up on it and I made some parts easier to understand. I don't know if it will get approved or not yet but hopefully it will. If you have any other questions about the tab or certain parts of the song I'll be happy to answer them. Thank you and I'm sorry about the confusion.

guest
You may want to rate the tab now too:
select rating
Wanna post a correction for this tab? Suggest correction