Oops, an error
Loading. Please wait.

Manhattan Tab

71 views 1 this week
no commentswrite comment
1 2 3 4 5
please rate
add to favorites
launch autoscroll
font size
0
reset
how to read this tab
guitar tuner
Autoscroll
slow
fast
+/-
esc
set tempo
stop
Help us to improve Ultimate-Guitar.com Take our survey!
×
Contributor
Difficulty
novice
----------------------------------------------------------------------------I've Looked
Everywhere For The Tabs To This Song,But There Was None.
So I Improvised.This Is My First Tab Ever,So There May Be A Few Mistakes.Hopefully,There 
Ain't Any.
----------------------------------------------------------------------------
Song:Manhattan
Artist:Vagiant
Album:Public Display Of Infection
Tuning:Standard
----------------------------------------------------------------------------
INTRO:x4
E------------------|
B------------------|
G----5-------------|
D----5(x16)-4------|
A----3------4(x16)-|
E-----------3------|

VERSE 1:x2
E------------------------------------------------------------------|
B------------------------------------------------------------------|
G----5---------------5--------------5-----------------5-5-5-5-5555-|
D----5(x16)-4--------5(x16)-4-------5(x16)-4------5-5-5-5-5-5-5555-|
A----3------4(x16)---3------4(x16)--3------4(x16)-5-5-3-3-3-3-3333-|
E-----------3---------------3--------------4------3-3--------------|

CHORUS 1
E-----------------------------------------------------------------|
B-----------------------------------------------------------------|
G----5---------------------------5----------------5---------------|
D----5(x16)-4------6------4------5(x16)-4------6--5(x16)----------|
A----3------4(x16)-6(x16)-4(x16)-3------4(x16)-6--3---------------|
E-----------2------4------2-------------2------4------------------|

INTRO:x2

Verse 2:(Same As The First).

CHORUS 2:
E-----------------------------------------------------------------|
B-----------------------------------------------------------------|
G----5---------------------------5--------------------------------|
D----5(x16)-4------6------4------5(x16)-4------6------------------|
A----3------4(x16)-6(x16)-4(x16)-3------4(x16)-6------------------|
E-----------2------4------2-------------2------4------------------|

BRIDGE
E-----------------------------------------------------------------|
B-----------------------------------------------------------------|
G----8---------------------------8--------------------------------|
D----8(x16)-6------8------6------8(x16)-6------8-8-8--------------|
A----6------6(x16)-8(x16)-6(x16)-6------6(x16)-8-8-8--------------|
E-----------4------6------4-------------4------6-6-6--------------|

OUTRO
E----------------------------------------------------------------|
B----------------------------------------------------------------|
G----8-------------8-------------8-------------8-----------------|
D----8(x16)-6------8(x16)-6------8(x16)-6------8(x16)-6----------|
A----6------6(x16)-6------6------6------6(x16)-6------6(x16)-----|
E-----------4-------------4(x16)--------4-------------4----------|

END
E-------|
B-------|
G----8--|
D----8--| Hold Chord
A----6--|
E-------|
--------|That's It,If There's Any Mistakes, Just Tell Me.
comments
We did not receive enough feedback on this tab! Please rate:
print report bad tab
1 2 3 4 5
I want to post or [tab]
guest
You may want to rate the tab now too:
select rating
Please do not post tabs as comments. Select "correction" instead!