Oops, an error
Loading. Please wait.

Planet Of The Apes Tab

121 views 1 this week
no commentswrite comment
1 2 3 4 5
2 more votes to show rating
add to favorites
launch autoscroll
font size
0
reset
how to read this tab
guitar tuner
Autoscroll
slow
fast
+/-
esc
set tempo
stop
Help us to improve Ultimate-Guitar.com Take our survey!
×
Difficulty
Tuning
intermediate
D# G# C# F# A# D#
Tuning: 1/2 Step Down

INTRO
eb|-----------------------------------------------------------------------|
Bb|-------------------GUITAR-1--------------------------------------------|
Gb|-----------------------------------------------------------------------|
Db|-----------------PLAYED-OVERTOP-OF-BELOW-RIFF--------------------------|
Ab|--8--------------------------------------------------------------------|
Eb|--6--------------------------------------------------------------------|
    PM             PLAYED TOGETHER     
                  /\/\/\/\/\/\/\/\/\
eb|-----------------------------------------------------------------------|
Bb|-------------------GUITAR-2--------------------------------------------|
Gb|-----------------------------------------------------------------------|
Db|-----------------------------------------------------------------------|
Ab|--8888-11/10--8888-11/10--8888-11/10--8888--6-7------------------------|
Eb|--6666-9/-8---6666-9/-8---6666-9/-8---6666--4-5------------------------|


CONTINUED 2X EACH
eb|-----------------------------------------------------------------------|
Bb|--------------------GUITAR-1-------------------------------------------|
Gb|-----------------------------------------------------------------------|
Db|-----------------------------------------------------------------------|
Ab|--8----11-10--8----11-10--8----11-10--------6-7------------------------|
Eb|--6----9--8---6----9--8---6----9--8---------4-5------------------------|
    PM    PMPM  PM    PMPM  PM    PMPM        PMPM                   

eb|-----------------------------------------------------------------------|
Bb|-------------------GUITAR-2--------------------------------------------|
Gb|-----------------------------------------------------------------------|
Db|-----------------------------------------------------------------------|
Ab|--8888-11/10--8888-11/10--8888-11/10--8888--6-7------------------------|
Eb|--6666-9/-8---6666-9/-8---6666-9/-8---6666--4-5------------------------|



CONTINUED  4X
eb|-----------------------------------------------------------------------|
Bb|---------------------BOTH-GUITARS--------------------------------------|
Gb|-----------------------PLAY-4X-----------------------------------------|
Db|-----------------------------------------------------------------------|
Ab|--8888-11/10--8888-11/10--8888-11/10--8888--6-7------------------------|
Eb|--6666-9/-8---6666-9/-8---6666-9/-8---6666--4-5------------------------|





VERSE 2X
eb|-----------------------------------------------------------------------|
Bb|-----------------------------------------------------------------------|
Gb|-----------------------------------------------------------------------|
Db|-----------------------------------------------------------------------|
Ab|-----------------------------------------------------------------------|
Eb|--------------3333444455556666-------3333444455556666------------------|
                 PMPMPMPMPMPMPMPM       PMPMPMPMPMPMPMPM

INTRO RIFF 4X
eb|-----------------------------------------------------------------------|
Bb|---------------------BOTH-GUITARS--------------------------------------|
Gb|-----------------------PLAY-4X-----------------------------------------|
Db|-----------------------------------------------------------------------|
Ab|--8888-11/10--8888-11/10--8888-11/10--8888--6-7------------------------|
Eb|--6666-9/-8---6666-9/-8---6666-9/-8---6666--4-5------------------------|



VERSE 3X
eb|-----------------------------------------------------------------------|
Bb|-----------------------------------------------------------------------|
Gb|-----------------------------------------------------------------------|
Db|-----------------------------------------------------------------------|
Ab|-----------------------------------------------------------------------|
Eb|--------------3333444455556666-------3333444455556666------------------|
                 PMPMPMPMPMPMPMPM       PMPMPMPMPMPMPMPM

CONTIUNED
eb|--------------3---4---5---6--------------------------------------------|
Bb|--------------6B--7B--8B--9B------------THIS-PLAYED-LAST-TIME----------|
Gb|------------FULL-FULL-FULL-FULL---------OVERTOP-OF-ABOVE-RIFF----------|
Db|------------BEND-BEND-BEND-BEND----------------------------------------|
Ab|-----------------------------------------------------------------------|
Eb|-----------------------------------------------------------------------|
                           
Suggest correction
Give kudos to tab author, rate the tab!
1 2 3 4 5
comments
print report bad tab
guest
You may want to rate the tab now too:
select rating
Wanna post a correction for this tab? Suggest correction