Oops, an error
Loading. Please wait.

Romeo Y Julieta chords

84 views 1 this week
no commentswrite comment
1 2 3 4 5
3 more votes to show rating
add to favorites
×
Save as Personal and add changes to this tab that will be seen only by you. Learn more ›
×
You can save this tab as Personal to edit and correct it or add notes. All changes will be seen only by you. Learn more »
launch autoscroll
font size
0
reset
transpose
0
reset
simplify chords
display chords
guitar tuner
edit
Autoscroll
slow
fast
+/-
esc
set tempo
stop
Strumming
There is no strumming pattern for this song yet. and get +5 IQ
Bb      F M   A7 Dm
larala larala lalalala

Bb      F M   A7 Dm
larala larala lalalala

Bb      F M   A7 Dm
larala larala lalalala

Bb      F M   A7 Dm
larala larala lalalala

                                     Cej6          Cej5
1-----------0-1-1-0-1-3--5-5-4-5-6-5--6-------6------5-------5--3--1--0---5---
2---3-3-2-3---------------------------6-6---6-6------6-6---6-6----------------
3-----------0-2-2-1-2-4--6-6-5-6-7-6----7-7-7----------5-5-5----3--2--0---6---
4---3-3-2-3-------------------------------6--------------5--------------------
5-----------------------------------------------------------------------------
6-----------------------------------------------------------------------------


1-----------0-1-1-0-1-3--5-5-4-5-6-5--6-------6------5-------5--3--1--0------
2---3-3-2-3---------------------------6-6---6-6------6-6---6-6------------3----
3-----------0-2-2-1-2-4--6-6-5-6-7-6----7-7-7----------5-5-5----3--2--0------
4---3-3-2-3-------------------------------6--------------5----------------3----
5-----------------------------------------------------------------------------
6-----------------------------------------------------------------------------


Dm                                 Gm
No tengo prisa por tenerte aqui a mi lado

            C                       F 
se que lo nuestro es demasiado para ti

           Bb                           Dm
porque ya sé que si no hay culpa no hay pecado

                       E7       Bb     A7
aunque nos quieran separados  igual te espero


Dm                                 Gm
Se que tu padre no te deja estar conmigo

            C                       F 
porque se opone aunque no entienda tu sufrir

           Bb                           Dm
soy el romeo que se cruza en tu camino 

                       E7       Bb     A7
soy el que cambia el destino de nuestras vida.


Bb                   F              A7    Dm
No hay nada en este mundo que quiera mas que a voz

Bb                   F              A7    Dm
voy a jugarme entero esta vez por este amor

Bb                   F              A7    Dm
voy a jugarme entero esta vez por este amor


La segunda parte se toca con los mismos acordes de la primera parte

            
            
Suggest correction
Creating personal tab
Creating personal tab
You can edit any tab online and save it as your Personal.

You can edit, replace or remove any tab part or add personal notes – all changes will be seen only by you.

Personal tabs can be accessed anytime from any device, even offline.
Learn more »
Give kudos to tab author, rate the tab!
1 2 3 4 5
comments
print report bad tab
guest
Wanna post a correction for this tab? Suggest correction