Oops, an error
Loading. Please wait.

From The Second I Wake Up Live intro tab

944 views 3 this week
9 commentsread comments
1 2 3 4 5
1 last vote to show rating
add to favorites
×
Save as Personal and add changes to this tab that will be seen only by you. Learn more ›
×
You can save this tab as Personal to edit and correct it or add notes. All changes will be seen only by you. Learn more »
launch autoscroll
font size
0
reset
how to read this tab
guitar tuner
edit
Autoscroll
slow
fast
+/-
esc
set tempo
stop
Author
Difficulty
-------------------------------------------------------------------------------
                             From the Second I Wake Up (live) intro - Valencia/Promise of Redemption
-------------------------------------------------------------------------------
Tabbed by:ian


Tuning:standard

      D   D U D      D             D
e|----0---0-0-0-0----0-------------0---------|
B|----1---1-1-3------1-------------1---------|
G|----2---0-0-0------2-------------2---------|
D|----0-----------3--3-------------0---------|
A|-3--3------------------0h3-3h5-3-3---------|
E|-------------------------------------------|


U = upstroke
D = downstroke

            
            
Suggest correction
Creating personal tab
Creating personal tab
You can edit any tab online and save it as your Personal.

You can edit, replace or remove any tab part or add personal notes – all changes will be seen only by you.

Personal tabs can be accessed anytime from any device, even offline.
Learn more »
Give kudos to tab author, rate the tab!
1 2 3 4 5
comments
print report bad tab
9 comments total. Showing first comments.
0 reply
JasonZ14 73 Aug 22, 2006 02:09 PM

haha idk if this is right bro. from what ive seen and am pretty sure is right, it goes like this.

e|---0------------0--------------------|
B|---2---0h2------2--------------------|
G|---2-------2----2--------------------|repeat
D|-------------------------------------|
A|-0--------------------0h2-0----------|
E|-------------0-2---0h2---------------|

and then he starts strumming the 220 when he starts signing. im pretty sure thats right. let me know what u think man

0 reply
eblood21 43 Aug 22, 2006 03:52 PM

hey man..yeah i askd him hes a friend of mine..mines right ..he might play it a half step down tho

0 reply
JasonZ14 73 Oct 06, 2006 03:24 PM

completely wrong. either your lieing or he's lieing to you. and i'll bet on your lieing..

guest
You may want to rate the tab now too:
select rating
Wanna post a correction for this tab? Suggest correction