Oops, an error
Loading. Please wait.

Ebrio De Amor tab

71 views 1 this week
no commentswrite comment
1 2 3 4 5
3 more votes to show rating
add to favorites
×
Save as Personal and add changes to this tab that will be seen only by you. Learn more ›
×
You can save this tab as Personal to edit and correct it or add notes. All changes will be seen only by you. Learn more »
launch autoscroll
font size
0
reset
how to read this tab
guitar tuner
edit
Autoscroll
slow
fast
+/-
esc
set tempo
stop
e-5--8--8--8--8----6-8--8--6-8--6---6-10-10-8--10---
B-6--10-10-10-10---8-10-10-8-10-8---8-11-11-10-11---
G---------------------------------------------------

e-8--10-10-8--10-8----8--8--8--8--8--6--6-8--8--6-5-3--3-5-6-5-3--1-
B-10-11-11-10-11-10---10-10-10-10-10-8--8-10-10-8-4-5--3-5-6-5-3--1-
G-----------------------------------------------------------------2-
D-----------------------------------------------------------------3-
A-----------------------------------------------------------------3-
E-----------------------------------------------------------------1-


FA         LA#      DO                     FA
llegue borracho de amor, como todas las noches
             LA#                DO
me querras besarme llenarme de amor
              FA
sin ningun reproche
           LA#                  DO
dios mio porque hallo en otro rostro
              LAm                REm
la mirada la piel que me vuelve loco
             SOLm            DO
quisiera ser otro no pude tampoco
                  FA
ser un ebrio de amor.

requinto.

FA          LA#              DO              FA
tu eres mi vida tu eres mi amor, tu eres mi todo
                LA#            DO
que triste me siento por no decidir
               FA
te quiero ami modo
          LA#                   DO
dios mio porque hallo en otro rostro
              LAm                REm
la mirada la piel que me vuelve loco
             SOLm              DO
quisiera ser otro no pude tampoco
                 FA
ser un ebrio de amor.

            
            
Suggest correction
Creating personal tab
Creating personal tab
You can edit any tab online and save it as your Personal.

You can edit, replace or remove any tab part or add personal notes – all changes will be seen only by you.

Personal tabs can be accessed anytime from any device, even offline.
Learn more »
Give kudos to tab author, rate the tab!
1 2 3 4 5
comments
print report bad tab
guest
Wanna post a correction for this tab? Suggest correction