Oops, an error
Loading. Please wait.

Vencedor tab

41 views 1 this week
no commentswrite comment
1 2 3 4 5
3 more votes to show rating
add to favorites
×
Save as Personal and add changes to this tab that will be seen only by you. Learn more ›
×
You can save this tab as Personal to edit and correct it or add notes. All changes will be seen only by you. Learn more »
launch autoscroll
font size
0
reset
how to read this tab
guitar tuner
edit
Autoscroll
slow
fast
+/-
esc
set tempo
stop
Espero que le ayude, disfrutenla
INTRO: A-B-G#m-C#m-A-B-Em

e|--7-7-7-5-5-4-4-2-4-5-7-7-9-11-12--|
b|-----------------------------------|
G|-----------------------------------|
D|-----------------------------------|
A|-----------------------------------|
E|-----------------------------------|

e|--7-7-7-5-5-4-4-2-4-5-7-7-9-7-5-4--|
b|-----------------------------------|
G|-----------------------------------|
D|-----------------------------------|
A|-----------------------------------|
E|-----------------------------------|

e|--4-4-4-2-2-0-4-2-2----------------|
b|-------------------4-5-------------|
G|-----------------------------------|
D|-----------------------------------|
A|-----------------------------------|
E|-----------------------------------|

Em                  G#m
Aun, si el mundo entero
    C#m
se opusiera a nuestro amor
         F#m               C#m
no me importaria, nunca dejaria

 A          F#m        B
de quererte con todo el corazòn

Em                 G#m
Aun si el mundo entero
     C#m
me aplaudiera por tu adios
       F#m             C#m
nada cambiaria, no me serviria
     A                 F#m         B
pues me muero sin tus besos sin tu amor


Coro
       A           B               G#m      C#m
Porque tu eres mi mundo, que me importa corazón
      A              B            G#m        C#m
lo demás me suena absurdo, porque tengo tu amor
          A          B              G#m       C#m
y aunque todo lo perdiera, mientras tu me quisieras
      A                B                    E
me declaro ante el mundo...        vencedor.


(se repite intro, acompañado de la tablatura)


Em                 G#m
Aun si el mundo entero
     C#m
me aplaudiera por tu adios
       F#m             C#m
nada cambiaria, no me serviria
     A                 F#m         B
pues me muero sin tus besos sin tu amor...

CORO.
FINAL: A-B-G#m-C#m-A-B-Em

DUDAS Y ACLARACIONES A MI FACE (ANGEL GUNS),GRACIAS Y ESPERO LES AGRADE.
Suggest correction
Creating personal tab
Creating personal tab
You can edit any tab online and save it as your Personal.

You can edit, replace or remove any tab part or add personal notes – all changes will be seen only by you.

Personal tabs can be accessed anytime from any device, even offline.
Learn more »
Give kudos to tab author, rate the tab!
1 2 3 4 5
comments
print report bad tab
guest
Wanna post a correction for this tab? Suggest correction