Oops, an error
Loading. Please wait.

Triumph Der Metall Menschen Durchschauende Meere Tab

4 views 1 this week
no commentswrite comment
1 2 3 4 5
3 more votes to show rating
add to favorites
launch autoscroll
font size
0
reset
how to read this tab
guitar tuner
Autoscroll
slow
fast
+/-
esc
set tempo
stop
Help us to improve Ultimate-Guitar.com Take our survey!
×
Author
    (0:00 - 1:34)
e|---------------------------------------------------------------------------|
B|---------------------------------------------------------------------------|
G|------2-------2-------2-------2--------------------------------------------|
D|---------------------------------------------------------------------------|
A|--4-0---0-4-0---0-3-0---0-3-0---0------------------------------------------|
E|---------------------------------------------------------------------------|
    
    (1:35 - 2:08)
e|---------------------------------------------------------------------------|
B|------1---1---3-------0---0---1--------------------------------------------|
G|----2---2---2---2---2---2---2---2------------------------------------------|
D|--2---------------3--------------------------------------------------------|
A|---------------------------------------------------------------------------|
E|---------------------------------------------------------------------------|
    
    (2:09 - 2:46)
e|---------------------------------------------------------------------------|
B|---------------------------------------------------------------------------|
G|------2-------2-------2-------2--------------------------------------------|
D|---------------------------------------------------------------------------|
A|--4-0---0-4-0---0-3-0---0-3-0---0------------------------------------------|
E|---------------------------------------------------------------------------|

    (2:47 - 3:11)
e|---------------------------------------------------------------------------|
B|------1---1---3-------0---0---1--------------------------------------------|
G|----2---2---2---2---2---2---2---2------------------------------------------|
D|--2---------------3--------------------------------------------------------|
A|---------------------------------------------------------------------------|
E|---------------------------------------------------------------------------|

    (3:12 - 3:25)
e|---------------------------------------------------------------------------|
B|------1---1---3-------0---0---0---1---1---1---1----------------------------|
G|----2---2---2---2---2---2---2---2---2---2---2------------------------------|
D|--2---------------3-----------------------------2--------------------------|
A|---------------------------------------------------------------------------|
E|---------------------------------------------------------------------------|

    (3:26 - 5:26)
   Am      F

    (5:27 - 6:22)
e|---------------------------------------------------------------------------|
B|---------------------------------------------------------------------------|
G|------2-------2-------2-------2--------------------------------------------|
D|---------------------------------------------------------------------------|
A|--4-0---0-4-0---0-3-0---0-3-0---0------------------------------------------|
E|---------------------------------------------------------------------------|

    (6:23 - 6:40)
feedback

    (6:41 - 7:07)
e|-----------------------------------------------9-8-------------------------|
B|----------8-----------------11--------------------------------8h9p8--------|
G|--------8-----------------8------------------8----------------------8------|
D|-----10----------------10-----------------10--------------------------10---|
A|--11----------------11-----------------11----------------------------------|
E|---------------------------------------------------------------------------|

    (7:08 - 7:25)
e|---------------------------------------------------------------------------|
B|--8------------8-----------11---------8------------------------------------|
G|--8----------8-------------8----------8------------------------------------|
D|--10----------------------------------10-----------------------------------|
A|--11----------------------------------11-----------------------------------|
E|---------------------------------------------------------------------------|

    (7:26 - 7:38)
e|---------------------------------------------------------------------------|
B|--8------------------8-----------------------------------------------------|
G|--8------8-----8-----8-----------------------------------------------------|
D|--10-----8-----8-----10----------------------------------------------------|
A|---------------------------------------------------------------------------|
E|---------------------------------------------------------------------------|

    (7:39 - 7:52)
e|---------------------------------------------------------------------------|
B|---------------------------------------------------------------------------|
G|---8--8--8--8--------------------------------------------------------------|
D|---10-10-10-10-------------------------10-10-8-----------------------------|
A|---------------------------------------8--8--8-----------------------------|
E|---------------------------------------------------------------------------|
           The crew had been with her      The king and the telesonic

    (7:53 - 8:11)
e|---------------------------------------------------------------------------|
B|---------------------------------------------------------------------------|
G|-------------------------8------------------------8------------------8-----|
D|--8--10-----8------------10-----10------------10---------------------10----|
A|--8--8------8------------11-----10------------10---------------------11----|
E|---------------------------------------------------------------------------|
         Slow motion                has stopped     from the Valium angel

    (8:12 - 8:36)
e|---------------------------------------------------------------------------|
B|----------11---------------------------------------------------------------|
G|--8--12------8--------8--8-------8-----------------------------------------|
D|--10---------10--------------------------8--10--8-----8--10-8--------------|
A|--11---------11-------11---11----11------8--8---8-----8--8--8--------------|
E|------------------------------13-------------------------------------------|
     
     (8:37 - 8:53)
e|--------------------------------------------------------------11-----------|
B|-------------------------------------------9-8--------------9--------------|
G|--7h8---------5\3-----------------8----------------------------------------|
D|----------5--------5----5/8------------------------------------------------|
A|--------6-------------6-----6----------------------------------------------|
E|---------------------------------------------------------------------------|

     (8:54 - 9:08)
e|---------------------------------------------------------------------------|
B|-----------------4-4--------4----------------------------------------------|
G|------5----5-----5---5---5-----5-------------------------------------------|
D|--5h6-6----6-----6-----6---------------------------------------------------|
A|------6----6-----4---------------------------------------------------------|
E|---------------------------------------------------------------------------|

    (9:09 - 10:00)
e|----------------------------------------------------------------------------------|
B|----------------------------------------------------------------------------------|
G|--5-5-----3---5-------5--3---5----------------3-----------1--------0---------0----|
D|--3---3---3-3---3---3----3---3-------------5----------5---------5---------5-------|
A|--------5---------5------5--------------6----------6---------6---------6-------6--|
E|----------------------------------------------------------------------------------|
Suggest correction
Give kudos to tab author, rate the tab!
1 2 3 4 5
comments
print report bad tab
guest
You may want to rate the tab now too:
select rating
Wanna post a correction for this tab? Suggest correction