Oops, an error
Loading. Please wait.

Akallan Till Faederna Bass Tab

116 views 1 this week
no commentswrite comment
1 2 3 4 5
please rate
add to favorites
launch autoscroll
font size
0
reset
guitar tuner
Tab Pro tools
  • play this tab
  • loop segment
  • change instrument
  • show fretboard
  • metronome
Autoscroll
slow
fast
+/-
esc
set tempo
stop
Contributor
Difficulty
novice
-----------------------------------------------------------------------------
			     AKALLAN TILL FAEDERNA - Valkyria
-----------------------------------------------------------------------------

Tabbed By : Zach Rewald.
e-mail: 

Tuning:  Standard  (EADG)


Riff 1
G|--------------------------------------------------------------------------|
D|--------------------------------------------------------------------------|
A|--------------------------------------8--------6--------------------------|
E|--6--------6--------9--------9--------------------------6--------6--------|
    *        *        *        *        *        *        *        *



Riff 2
G|--------------------------------------------------------------------------|
D|--------------------------------------------------------------------------|
A|--1-----------------1-----------------4--------6--------1--------3--------|
E|-----------2-----------------2--------------------------------------------|
    *        *        *        *        *        *        *        *



Riff 3
G|------------------------------------------------------------------|
D|------------------------------------------------------------------|
A|--6-6-6-6-6-6-6-8-9-8-6---6-6-------------------------------------|
E|------------------------9-----6-6-7-7-7-7-7-7-7-7-9-9-9-9-9-9-9-9-|




Ending
G|--------------------|
D|--------------------|
A|--6-----------------|
E|--------------------|
    *

The ending is held for a while, then just stops.  Listen to the song for correct timing.




Riff Order:
Riff 1 x 4
(Piano)
Riff 2 x 2
(Piano)
Riff 3 x 4
Ending.




| *  Held note
| /  slide up
| \  slide down
| h  hammer-on
| p  pull-off
| ~  vibrato
| +  harmonic
| x  Mute note
=============================================================================
comments
We did not receive enough feedback on this tab! Please rate:
print report bad tab
1 2 3 4 5
I want to post or [tab]
guest
You may want to rate the tab now too:
select rating
Please do not post tabs as comments. Select "correction" instead!