Oops, an error
Loading. Please wait.

Sang Av De Gangna Bass Tab

147 views 1 this week
no commentswrite comment
1 2 3 4 5
please rate
add to favorites
launch autoscroll
font size
0
reset
guitar tuner
Autoscroll
slow
fast
+/-
esc
set tempo
stop
Help us to improve Ultimate-Guitar.com Take our survey!
×
Author
Difficulty
novice
-----------------------------------------------------------------------------
			     Sang Av De Gangna - Valkyria
-----------------------------------------------------------------------------

Tabbed By : Zach Rewald
e-mail: 

Tuning:  Standard  (EADG)


  Riff 1
G|--------------------------------------------------------------------------|
D|--------------------------------------------------------------------------|
A|--------------------------------------------------------------------------|
E|--5---------5---2---------2---5---3---5---2---------2---4---------4---3---|


G|--------------------------------------------------------------------------|
D|--------------------------------------------------------------------------|
A|--------------------------------------------------------------------------|
E|------3---5---------5---------3---5---------5---2---------2---5---3---5---|


G|------------------------------------------------------------|
D|------------------------------------------------------------|
A|------------------------------------------------------------|
E|2---------2---4---------4---3---------3---5---------3---5---|
                                                          *



  Riff 2  x4
G|--------------------------------------------|
D|--------------------------------------------|
A|--------------------------------------------|
E|--5---------8---------7---------2---------2-|




  Riff 3
G|-------------------------------------------------------------------------|
D|-------------------------------------------------------------------------|
A|------------------8--8--8b---8-9-9-9-9-9-9-9-9-8-8-8-8-8-8-8-8-----------|
E|--6----6--6----6-----------------------------------------------6-6-6-6-6-|


G|-------------------------------------------------------------------------|
D|-------------------------------------------------------------------------|
A|--------------------------------8--8--8b---8-9-9-9-9-9-9-9-9-8-8-8-8-8-8-|
E|6-6-6-5---------6----6--6----6-------------------------------------------|
        *

G|------------------------------|
D|------------------------------|
A|8-8---------------------------|
E|----6-6-6-6-6-6-6-6-6---------|
                      *



  Riff 4 (Solo)
G|---------------------------------------------------------------------|
D|--8----8-9-6---------------------------------------------------------|
A|----------------8--8b---8--6--8--------------------------------------|
E|--------------------------------6----1----1-1----0--0-1---1--1--4----|


G|---------------------------------------------------------------------|
D|--8--8----8--6--8----------------------------------------------------|
A|-------------------8--8b---6--8----8--9----8-8-8--6--8--8------------|
E|-----------------------------------------------------------6---4--6--|



| b  Bend and release
| *  Held/Sustained
| /  slide up
| \  slide down
| h  hammer-on
| p  pull-off
| ~  vibrato
| +  harmonic
| x  Mute note
=============================================================================

http://hem.bredband.net/ljudan/frameset.htm
Suggest correction
Give kudos to tab author, rate the tab!
1 2 3 4 5
comments
print report bad tab
guest
You may want to rate the tab now too:
select rating
Please do not post tabs as comments. Select "correction" instead!