Oops, an error
Loading. Please wait.

Art Of Letting Go Tab

version 3
version 3

Whole song

867 views 3 this week
1 commentread comment
1 2 3 4 5
please rate
add to favorites
launch autoscroll
font size
0
reset
how to read this tab
guitar tuner
Tab Pro tools
  • play this tab
  • loop segment
  • change instrument
  • show fretboard
  • metronome
Autoscroll
slow
fast
+/-
esc
set tempo
stop
Contributor
Difficulty
novice
Tabbed by: a frustrated guitarist from Cebu studying @ USC-TC!
Tuning: open D#

Intro
e|-----------|
B|-----------|
G|-5-4-2-----|
D|-5-4-2-----|
A|-3-2-0-----|
E|-----------|
   * *   

e|---------------------------------------|
B|---------------------------------------|
G|---5---4/5-----------2-2---------------|
D|---5---4/5---2---5---2-2---------------|
A|-0-3-0-2/3---2---5---0-0---------------|
E|-----------0-0-0-3-0-------------------|
   *   *     *   *   *
Solo  (this is not 100% correct... it's just about 99.9%... posers!)
e|--------------------------------------------------------------------------|
B|--------------------------------------------------------------------------|
G|-----------12b14--14b12--12b14-b12b14-12b14b-12b14(ph)--12-9--------------|
D|-/14---------------------------------------------------------12-10--------|
A|-----12~~~---------------------------------------------------------12~~~--|
E|--------------------------------------------------------------------------|


e|--------------------------------------------------------------------------|
B|--------------------------------------------------------------------------|
G|--------------------------------------------------------------------------|
D|-----10-12b-14-12-10----10~~~---------------------------------------------|
A|-/12-----------------12-------12-10-12~~~---------------------------------|
E|--------------------------------------------------------------------------|


e|--------------------17------17------------17-------20b-p19p17----17~~~----|
B|----------------20b----20b-----20-17-20b-----20-17------------20----------|
G|-------------17-----------------------------------------------------------|
D|-------17-19--------------------------------------------------------------|
A|-12/19--------------------------------------------------------------------|
E|--------------------------------------------------------------------------|


e|-20-17--------------------------------------------------------------------|
B|-------20-19-17-----------------------------------------------------------|
G|----------------19-17-17h19p17----17-------19~~~--------------------------|
D|-------------------------------19----19-17-------19-17--------------------|
A|-------------------------------------------------------19-17-19p17--------|
E|-------------------------------------------------------------------20-17~-|


e|--------------------|
B|--------------------|
G|--------------------|
D|--------------------|
A|--------------------|
E|-19-20-19-17~~~-----|

d lead is not totally right... but it f**ckin sounds right!
I used an A-minor scale all throughout...

...and for d rest of d f**kin song...
DO IT UR F**CKIN SELF U STINKIN FAGGOT!
comments
We did not receive enough feedback on this tab! Please rate:
print report bad tab
1 2 3 4 5
1 comment total.
0 reply
cabeza wrote on July 20 2007, 01:09 am

puro ka bad words, kala mo naman cool 'yon..

I want to post or [tab]
guest
You may want to rate the tab now too:
select rating
Please do not post tabs as comments. Select "correction" instead!