Oops, an error
Loading. Please wait.

Breaking The Barriers Of Frustration Tab

567 views 1 this week
no commentswrite comment
1 2 3 4 5
please rate
add to favorites
launch autoscroll
font size
0
reset
how to read this tab
guitar tuner
Tab Pro tools
  • play this tab
  • loop segment
  • change instrument
  • show fretboard
  • metronome
Autoscroll
slow
fast
+/-
esc
set tempo
stop
Contributor
Difficulty
intermediate
Song: Breaking The Barriers Of Frustration
Band: Valley Of Chrome
Album: Love And Devotion
Tabbed by: Mr. Picky
Tuning: Db Ab Db Gb Bb eb

Soft Intro

Guitar 1 
eb||------------------------------||------------------------------||
Bb||----6----------6-6------------||----6-------------------------||
Gb||----7----------7-7------------||----7--------------0-----0----|| \/ |_|
Db||----7----------7-7------------||----7------------3-----2------|| /\   |
Ab||----5--8-7-8---5-5-8-7-8-8----||----5--8-7-8---1-----0--------||
Db||------------------------------||------------------------------||

Guitar 2 (Comes in after Guitar 1 plays it twice)
eb||----------------------5-8-5-----------------------------||
Bb||----5-6-5~------------6-----6---8-6-5---5--------5------||
Gb||-------------5--7~----7---------------7-----5------7----||
Db||----------------------------------------------7---------||
Ab||--------------------------------------------------------||
Db||--------------------------------------------------------||

eb||----5-5-8-8~---10-8-6-5-6-5h6h5----------------||
Bb||----6---------------------------8-6-5-6-5-6----||
Gb||----7------------------------------------------||
Db||-----------------------------------------------||
Ab||-----------------------------------------------||
Db||-----------------------------------------------||

Loud Intro

e||-----------------------5-8-5h6h5------||
B||-------5-6-5h6h5-----6-----------6----||
G||-----7----------5-7-------------------||
D||--------------------------------------||
A||----5---------------------------------||
D||--------------------------------------||

eb||---------------------5--------------------||
Bb||------5-6-5h6h5--------6---------8--5-----||
Gb||-----7----------7--------4----------------||
Db||------------------8-----------7-----------||
Ab||----5-------------------------------------||
Db||------------------------------------------||

Verse I

Acoustic
eb||---------------------------||------------------------------||
Bb||---------------------------||------------------------------||     _
Gb||---------------------------||-------------------0-----0----|| \/  _|
Db||-------------7-------------||-----------------3-----2------|| /\ |_
Ab||----5--8-7-8----8-7-8-8----||----5--8-7-8---1-----0--------||
Db||---------------------------||------------------------------||

Distorted
eb||----------------------------||-------------------------------||
Bb||----------------------------||-------------------------------||     _
Gb||----------------------------||--------------------0-----0----|| \/  _|
Db||----00--------7-------------||----00------------3-----2------|| /\ |_
Ab||----00--8-7-8----8-7-8-8----||----00--8-7-8---1-----0--------||
Db||----00----------------------||----00-------------------------||

Pre Chorus

eb||---------------------------------------------------------------------||
Bb||---------------------------------------------------------------------||
Gb||---------------------------------------------------------------------||
Db||----5-5-7-5-8-7-5-----7-7-7-7-7-8-7-7----8-8-8-8-8-8-8-8-8-8-8-8-----||
Ab||----5-5-5-5-5-5-5-----7-7-7-7-7-7-7-7----8-8-8-8-8-8-8-8-8-8-8-8-----||
Db||----5-5-5-5-5-5-5-----7-7-7-7-7-7-7-7----8-8-8-8-8-8-8-8-8-8-8-8-----||

eb||----------------------------------------------------------------------||
Bb||----------------------------------------------------------------------||
Gb||----------------------------------------------------------------------||
Db||----5-5-7-5-8-7-5-----7-7-7-7-7-8-7-7----8-8-8-8-8-8-8-8-8-8-8-8------||
Ab||----5-5-5-5-5-5-5-----7-7-7-7-7-7-7-7----8-8-8-8-8-8-8-8-8-8-8-10-----||
Db||----5-5-5-5-5-5-5-----7-7-7-7-7-7-7-7----8-8-8-8-8-8-8-8-8-8-8-8------||

Chorus

eb||--------------------------------------------------------||
Bb||--------------------------------------------------------||
Gb||--------------------------------------------------------|| \/ |_|
Db||----7-7-7-7-8-7-7----------5-5-5-5-5-5-5-5-5-5---3-5----|| /\   |
Ab||----5-5-5-5-5-5-5-8-7-0----3-3-3-3-3-3-3-1-1-1---1-3----||
Db||--------------------------------------------------------||

Repeat Loud Intro
Repeat Verse
Repeat Pre Chorus
Repeat Chorus
Solo (I don't know this yet)
Repeat Pre Chorus
Repeat Chorus

Outro:

Repeat until fade
eb||------------------------------------------------------||
Bb||------------------------------------------------------||
Gb||------------------------------------------------------|| 
Db||----0~--0-12-0-12---8~--0-8-0-8---5~--0-5-0-5---7~----||
Ab||----0~--0-12-0-12---8~--0-8-0-8---5~--0-5-0-5---7~----||
Db||----0~--0-12-0-12---8~--0-8-0-8---5~--0-5-0-5---7~----||

End
comments
We did not receive enough feedback on this tab! Please rate:
print report bad tab
1 2 3 4 5
I want to post or [tab]
guest
You may want to rate the tab now too:
select rating
Please do not post tabs as comments. Select "correction" instead!