Oops, an error
Loading. Please wait.

Forever Young tab

version 3
version 3

Whole song

Interactive

1,946 views 1 this week
1 commentread comment
1 2 3 4 5
3 more votes to show rating
add to favorites
×
Save as Personal and add changes to this tab that will be seen only by you. Learn more ›
×
You can save this tab as Personal to edit and correct it or add notes. All changes will be seen only by you. Learn more »
launch autoscroll
font size
0
reset
how to read this tab
guitar tuner
edit
Autoscroll
slow
fast
+/-
esc
set tempo
stop
Tabbed by:Jeffrey Camposano
Age:17
Cell:Wala ehhehe!!
Krass:Lace :D
Pulpcom.user:||The_Used||and • jepoi •

For Comments and suggestion
e-mail/ym:theused_of_d_ink@yahoo.com
Myspace:www.myspace.com/sijepoi

Pakirate nlng mga bakla!!
Coming soon: We the Dying,Twilight,When everything turn to dust.....ehheh
katamad lng gumawa eh la oras mag net ehehhe .......
thanx nga pala kay gotheng ehehe nagawa ko na ung The Art of letting go

^=Palm Mute


FOREVER YOUNG


intro:G1
e---------------------------------|
B----3-3-5-6--5-6-8--6-5-6-5-3----|
G---------------------------------|
D---------------------------------| Repeat many times
A---------------------------------|
D---------------------------------|
intro:G2
e-------------------------------------|
B-------------------------------------|
G-------------------------------------|
D----0~~~~~0-3~~~~~3-5~~~~~5-8~~~~~8--| repaet 4x
A----0~~~~~0-3~~~~~3-5~~~~~5-8~~~~~8--|
D----0~~~~~0-3~~~~~3-5~~~~~5-8~~~~~8--|

verse:Both PM
e-----------------------------------------------------|
B-----------------------------------------------------|
G-----------------------------------------------------|
D----0~0~0~0~0~0-3~3~3~3~3~3-5~5~5~5~5~5-8~8~8~8~8~8--| x4
A----0~0~0~0~0~0-3~3~3~3~3~3-5~5~5~5~5~5-8~8~8~8~8~8--|
D----0~0~0~0~0~0-3~3~3~3~3~3-5~5~5~5~5~5-8~8~8~8~8~8--|
       ^ ^ ^ ^ ^   ^ ^ ^ ^ ^   ^ ^ ^ ^ ^   ^ ^ ^ ^ ^
The basic things are losing their value
and the pace of life is so complex
The people around me feel the pressure but
I'll remain forever young
They want more than they need and
they give more than they could bleed
They feel they're next in line yet
I'll remain forever young

e--------------------------------------|
B--------------------------------------|
G--------------------------------------|
D-----3-3-0-3-5~5~5~5~-8-8-8-8-8-8-8---| 4x
A-----3-3-0-3-5~5~5~5~-8-8-8-8-8-8-8---|
D-----3-3-0-3-5~5~5~5~-8-8-8-8-8-8-8---|

I control the hands of time- much to the majority's dismay
If you'd leave me behind- I'm a picture painted in black and gray
But my colors are inside- when it's just too difficult to see
And I just feel alive- this means so much to me

e----------------------------------------|
B-----------6------6---------------------|
G-----------7------7---------------------|
D------0-0-----0-0-----3-3-5-5~~~~~x-----| 4x
A------0-0-----0-0-----3-3-5-5~~~~~x-----|
D------0-0-----0-0-----3-3-5-5~~~~~x-----|
       ^ ^     ^ ^
Young!! Young!! - holding on and taking grasp
- a vow that I will last
- I've learned so much from the past
- I'll remain forever young

e---------------------------------|
B----3-3-5-6--5-6-8--6-5-6-5-3----|
G---------------------------------|
D---------------------------------| 4x
A---------------------------------|
D---------------------------------|

e-------------------------------------|
B-------------------------------------|
G-------------------------------------|
D----0~~~~~0-3~~~~~3-5~~~~~5-8~~~~~8--| repaet 4x
A----0~~~~~0-3~~~~~3-5~~~~~5-8~~~~~8--|
D----0~~~~~0-3~~~~~3-5~~~~~5-8~~~~~8--|

verse:Both PM
e-----------------------------------------------------|
B-----------------------------------------------------|
G-----------------------------------------------------|
D----0~0~0~0~0~0-3~3~3~3~3~3-5~5~5~5~5~5-8~8~8~8~8~8--| x4
A----0~0~0~0~0~0-3~3~3~3~3~3-5~5~5~5~5~5-8~8~8~8~8~8--|
D----0~0~0~0~0~0-3~3~3~3~3~3-5~5~5~5~5~5-8~8~8~8~8~8--|
       ^ ^ ^ ^ ^   ^ ^ ^ ^ ^   ^ ^ ^ ^ ^   ^ ^ ^ ^ ^
It's not my age it's what I really know
I can never be content
My commitment can't be measured because
I'll remain forever young
Witness the hourglass
slowly nearing it's final grain
A lifetime to remember
I'll remain forever young

e--------------------------------------|
B--------------------------------------|
G--------------------------------------|
D-----3-3-0-3-5~5~5~5~-8-8-8-8-8-8-8---| 4x
A-----3-3-0-3-5~5~5~5~-8-8-8-8-8-8-8---|
D-----3-3-0-3-5~5~5~5~-8-8-8-8-8-8-8---|

I control the hands of time- much to the majority's dismay
If you'd leave me behind- I'm a picture painted in black and gray
But my colors are inside- when it's just too difficult to see
And I just feel alive- this means so much to me

e----------------------------------------|
B-----------6------6---------------------|
G-----------7------7---------------------|
D------0-0-----0-0-----3-3-5-5~~~~~x-----| 4x
A------0-0-----0-0-----3-3-5-5~~~~~x-----|
D------0-0-----0-0-----3-3-5-5~~~~~x-----|
       ^ ^     ^ ^
Young!! Young!! - holding on and taking grasp
- a vow that I will last
- I've learned so much from the past
- I'll remain forever young

e-------------------------------------|
B-------------------------------------|
G-------------------------------------| x4
D----0~~~~~0-3~~~~~3-5~~~~~5-8~~~~~8--|
A----0~~~~~0-3~~~~~3-5~~~~~5-8~~~~~8--|
D----0~~~~~0-3~~~~~3-5~~~~~5-8~~~~~8--|

When the rain has already stopped
welcoming the sunshine's warmth
ill remain forever young
In a world where right is wrong
When the fountain has already dried
ill remain forever young
in the end we should decide
We'll sing the song they have'nt sung-
I'll remain forever young

e---------------------------------|
B----3-3-5-6--5-6-8--6-5-6-5-3----|
G---------------------------------| x4
D---------------------------------|
A---------------------------------|
D---------------------------------|
PM
e-----------------------------------------------------|
B-----------------------------------------------------|
G-----------------------------------------------------|
D----0~0~0~0~0~0-3~3~3~3~3~3-5~5~5~5~5~5-8~8~8~8~8~8--| x4
A----0~0~0~0~0~0-3~3~3~3~3~3-5~5~5~5~5~5-8~8~8~8~8~8--|
D----0~0~0~0~0~0-3~3~3~3~3~3-5~5~5~5~5~5-8~8~8~8~8~8--|
       ^ ^ ^ ^ ^   ^ ^ ^ ^ ^   ^ ^ ^ ^ ^   ^ ^ ^ ^ ^
When the well has already dried
and the only option is to die
We will dig and find the source
ill remain forever young
let it seep into our pores
Though jaded and mundane
the forgotten and unnamed
This is my requiem-
I'll remain forever young


END........... oki na yan......... kayo na bahala mag dagdag...pakirate nlng mga 
thanx!
salamat nga pala kay Gotheng at nakakuha ako ng idea tsup tsup tsup heheh...
Suggest correction
Creating personal tab
Creating personal tab
You can edit any tab online and save it as your Personal.

You can edit, replace or remove any tab part or add personal notes – all changes will be seen only by you.

Personal tabs can be accessed anytime from any device, even offline.
Learn more »
Give kudos to tab author, rate the tab!
1 2 3 4 5
comments
print report bad tab
1 comment total.
0 reply
darkroom45 10 Jun 22, 2008 03:30 AM

ung intro po dpat gani2:

e-----------------2---------------|
B----2-2-4-5--4-5----5-4-5-4-2----|
G---------------------------------|
D---------------------------------| Repeat many times
A---------------------------------|
D---------------------------------|

guest
Wanna post a correction for this tab? Suggest correction