Oops, an error
Loading. Please wait.

Forever Young Tab

version 4
version 4

Whole song

Interactive

1,841 views 1 this week
1 commentread comment
1 2 3 4 5
please rate
add to favorites
launch autoscroll
font size
0
reset
how to read this tab
guitar tuner
Tab Pro tools
  • play this tab
  • loop segment
  • change instrument
  • show fretboard
  • metronome
Autoscroll
slow
fast
+/-
esc
set tempo
stop
Contributor
Difficulty
Tuning
intermediate
D A D G B E
Song Title:Forever Young
Band Name:Valley of Chrome
Tab by:Andong (bamboo_josh07@yahoo.com)

Tunning:Drop D

hindi po ako sure dito, hehe basta magkatunog eh hehehe...anges ng valley malupet cla 
emocore daw cla pero para sakin ang dating nila metalcore....

Intro: Part 1
e|------------------------------------------|
B|------------------------------------------|
G|-----7---7-9-10--9-10-12--10-9-10-9-7-----| 2x
D|------------------------------------------|
A|------------------------------------------|
D|------------------------------------------|

pagkatapos ng dalawang beses..do this e2 n yung mataas E note

Part 2
e|---------------------------------------------|
B|---------------------------------------------|
G|-----9---9-11-12--11-12-14----12-11-12-11-9--| 2x
D|---------------------------------------------|
A|---------------------------------------------|
D|---------------------------------------------|

after 2x do this....pero continuous paren yung part 1

Part 3
e|------------------------------------|
B|------------------------------------|
G|------------------------------------| 4x
D|-0~~-----0-2~----2-4~----4-7~-------|
A|-0~~-----0-2~----2-4~----4-7~-------|
D|-0~~-----0-2~----2-4~----4-7~-------|
           PM      PM      PM

dead string lang yan..kaskasan lng..mabigat na labas nian sa amp basta
naka super dist. ka hehe.continuous pare yung part 1 kaso nagiba yung tempo
bumilis...

Part 4
e|------------------------------------|
B|------------------------------------|
G|------------------------------------| 2x
D|-0xxxx--2xxxx--4xxxx--7xxxx---------|
A|-0xxxx--2xxxx--4xxxx--7xxxx---------|
D|-0xxxx--2xxxx--4xxxx--7xxxx---------|

PAgkatapos ng part 4 break den ultin yung part 1...
eto n yung verse..

Verse
Part 5
e|------------------------------------------------|
B|------------------------------------------------| 2x
G|------------------------------------------------|
D|-0xxx0x0x0--2xxx2x2x2--4xxx4x4x4--7xx7x7x7------|
A|-0xxx0x0x0--2xxx2x2x2--4xxx4x4x4--7xx7x7x7------|
D|-0xxx0x0x0--2xxx2x2x2--4xxx4x4x4--7xx7x7x7------|

Refrain
Part 6
e|-------------------------|         e|----------------------------|
B|-------------------------| 3x then B|----------------------------|
G|-------------------------|         G|----------------------------|
D|--2-2-0-2--4---3h5--3h5--|         D|--0-2--0-2--0-2--0-2---4----|
A|--2-2-0-2--4---3-5--3-5--|         A|--0-2--0-2--0-2--0-2---4----|
D|--2-2-0-2--4-------------|         D|--0-2--0-2--0-2--0-2---4----|
                 PM   PM

Chorus
Part 6
e|------------------------|
B|----------15b-----------| 4x
G|----------17b-----------|
D|---0-0---------2-2--4~--|
A|---0-0---------2-2--4~--|
D|---0-0---------2-2--4~--|
     PM

Bridge: Tapping tigaapat bawat note...
Part 7
e|---------------------------------------------------|
B|---------------------------------------------------| 2x
G|---------------------------------------------------|
D|---------------------------------------------------|
A|--t5p7p10-4x---------------------------------------|
D|---------------t2p4p8-4x---t4p6p9-4x---t7p9p12-4x--|

ang outro madali n lng hehe..maraming po salmat...binabati ko c Hart Hetfield at c Josh Hammet
pati yung drummer boi na c Alex Ulrich..haha..DEJTALLICA foever! hehe
kung me tanong chat nio n lng me sa YM tnx...
comments
We did not receive enough feedback on this tab! Please rate:
print report bad tab
1 2 3 4 5
1 comment total.
0 reply
cabeza wrote on May 15 2007, 03:23 am

mali pare lalo na yung tapping, baliktad ba talaga yun? hehehe!! dropped c ito nung tinutugtog namin sa stage...

I want to post or [tab]
guest
You may want to rate the tab now too:
select rating
Please do not post tabs as comments. Select "correction" instead!