Oops, an error
Loading. Please wait.

Love And Devotion Tab

version 2
version 2

Solo

Whole song

3,099 views 6 this week
1 commentread comment
1 2 3 4 5
excellent!
x 1
add to favorites
launch autoscroll
font size
0
reset
how to read this tab
guitar tuner
Tab Pro tools
  • play this tab
  • loop segment
  • change instrument
  • show fretboard
  • metronome
Autoscroll
slow
fast
+/-
esc
set tempo
stop
Contributor
Difficulty
Tuning
advanced
D A D G B E
Valley of Chrome-love and devotion
BPA
siryo_so@yahoo.com
note: this is not 100% correct, I made my own style in every part of the lead, play it, 
good.

Intro: C#m5-A-B


Legend:

	\-slide down
	/-slide up
	h-hammer
	*-palm mute
	~-vibrato

|----------------------------------------------------|
|------9--------------------------5----------9-7-----|
|--------8-9---8h9h8--6---------6----------------9-8-|
|--11--------------------9---\7------7-7--/9---------|
|----------------------------------------------------|
|----------------------------------------------------|
|
|--------------------------------------------------------------|
|------9------------------------5-----------9—7h9h7------------|
|--------8-9—8h9h8--6---------6---------------------9-8--------|
|--11------------------9---\7------7-7---/9--------------------|
|--------------------------------------------------------------|
|--------------------------------------------------------------|


Verse:  C#m5-A-B
Chorus : C#m5-A-B

-I gave my heart to you…
									2x
|----------------------------------------------------|
|------9--------------------------5----------9-7-----|
|--------8-9---8h9h8--6---------6----------------9-8-|
|--11--------------------9---\7------7-7--/9---------|
|----------------------------------------------------|
|----------------------------------------------------|
|
|--------------------------------------------------------------|
|------9------------------------5-----------9—7h9h7------------|
|--------8-9—8h9h8--6---------6---------------------9-8--------|
|--11------------------9---\7------7-7---/9--------------------|
|--------------------------------------------------------------|
|--------------------------------------------------------------|

Do verse, then play chorus again then intro….

Bridge
					Repeat
|------------------------------------------------------------------|
|------------9h7---------9h7---------9h7-----------------9\-7------|
|-----/6~-6------9-----------9-----------9---------9----------9-8--|
|------------------8~-8--------9~-9--------10~--11----11-----------|
|------------------------------------------------------------------|
|------------------------------------------------------------------|
	*	    *	         *
Then…
						Repeat
|--------------------------------------------------------------------------------------------|
|---------------9\-7----------------9\-7-----------------9\-7-----------------9\-7-----------|
|---------9---------9-8~-------9---------9-8~-------9---------9-8~-------9---------9---------|
|---11-11---11-------------7-7---7--------------8-8---8--------------9-9---9---------10------|
|--------------------------------------------------------------------------------------------|
|--------------------------------------------------------------------------------------------|
 |
 | OR
 |							                      Repeat
|--------------------------------------------------------------------------------------------|
|-----------------9\-7-------------9\-7-------------9\-7-------------9\-7--------------------|
|------------9---------9-------9--------9-------9--------9-------9--------9------------------|
|--11~~---11---11--------7~--7---7--------8~--8---8--------9~--9---9--------10~--------------|
|--------------------------------------------------------------------------------------------|
|--------------------------------------------------------------------------------------------|


 Solo:
            revised

 |--------------------------------------------18~--161514--151413-141312--------------------|
 |--/14~--151617------161718--------------13------------------------------/14~--151617------|
 |---------------14~---------15~---131415----------------------------------------------14~--|
 |------------------------------------------------------------------------------------------|
 |------------------------------------------------------------------------------------------|
 |------------------------------------------------------------------------------------------|

 |-------15141312~------141312----------------------------------------19brh-17--21~-19~-----|
 |--------------------------------12/-14~--141516-141516—161718-1617------------------------|
 |--1414-----------------------14-----------------------------------------------------------|
 |------------------------------------------------------------------------------------------|
 |------------------------------------------------------------------------------------------|
 |------------------------------------------------------------------------------------------|

 |------21~-----191817--161514-151413-141312-15~--151413------------------------------------|
 |--18-------18------------------------------------------14~--12h14h12--141312--121110------|
 |------------------------------------------------------------------------------------------|
 |------------------------------------------------------------------------------------------|
 |------------------------------------------------------------------------------------------|
 |------------------------------------------------------------------------------------------|

 |------------------------------|-----------------------------------------------------------|
 |------------------------------|--------------------------------121314-1112~---------------|
 |-91011--111213-----15~---9~---|-----------------121314--121314----------------------------|
 |------------------------------|----------131415-------------------------------------------|
 |------------------------------|---151617--------------------------------------------------|
 |------------------------------|-----------------------------------------------------------|
comments
We did not receive enough feedback on this tab! Please rate:
print report bad tab
1 2 3 4 5
1 comment total.
0 reply
krystaljade wrote on July 26 2014, 09:43 am

alm mu n nga ung solo iniba mu p ung solo,no gud men,ginago mu nman,.share mu parekoy ung talent mu kse ako kh8 higitan k p ung lead nyan,...

I want to post or [tab]
guest
You may want to rate the tab now too:
select rating
Please do not post tabs as comments. Select "correction" instead!