Oops, an error
Loading. Please wait.

When Everthing Turns To Dust Tab

version 1
version 1

Solo

Whole song

323 views 1 this week
no commentswrite comment
1 2 3 4 5
please rate
add to favorites
launch autoscroll
font size
0
reset
how to read this tab
guitar tuner
Tab Pro tools
  • play this tab
  • loop segment
  • change instrument
  • show fretboard
  • metronome
Autoscroll
slow
fast
+/-
esc
set tempo
stop
Contributor
Difficulty
Tuning
Tabbers playing skills
novice
D A D G B E
intermediate
When everything turns to dust
by
Valley of chrome

Tabbed by: chiodos_bullet22@yahoo.com

tuning: drop D

-- hey everyone!!! this tab is 94% complete pleade try!!! --

Legend:
\  -  slide down
/  -  slide up
h  -  hammer
p  -  pull
[number]  -  pinched harmonic
|  -  division

Guitar 1   | Guitar 2
             (pick slide)
|----------|--------------------|
|----------|--------------------|
|-9--------|--------------------|
|-9--------|--------------------|
|-7--------|-18\1---------------|
|----------|-18\1---------------|

Guitar 1 (intro)

|--------------------------------------------------|
|--------------------------------------------------|
|--------------------------------------------------|
|-22222222--4-5-4h5-4-2-0-22222222--4--------------|
|-22222222----------------22222222--4--------------|
|-22222222----------------22222222--4--------------|

|------------------------------------------|
|------------------------------------------|
|----------4-5-4h5-4-2-0-------------------|
|-22222222---------------22222222----4-----|
|-22222222---------------22222222----4-----|
|-22222222---------------22222222----4-----|

Guitar 2 (intro)

|----------------------------------------------------|
|----------------------------------------------------|
|----------------------------------------------------|
|-22222222--4-5-4h5-4-2-0-22222222--4----------------|  2x
|-22222222----------------22222222--4----------------|
|-22222222----------------22222222--4----------------|

Guitar 1 (verse 1)

|------------------------------------------|
|------------------------------------------|
|------------------------------------------|
|-22222222-22222222-0-22222222--4----------|
|-22222222-22222222-0-22222222--4----------|
|-22222222-22222222-0-22222222--4----------|

Guitar 2 (verse 1)

|-----7--7h8-7--8-7-5h7-5h7-12-----------|
|-5-5--5------5--------------------------|
|----------------------------------------|
|----------------------------------------|
|----------------------------------------|
|----------------------------------------|

|-----7--7h8-7--8-7-5h7-5h7-10-----------|
|-5-5--5------5--------------------------|
|----------------------------------------|
|----------------------------------------|
|----------------------------------------|
|----------------------------------------|

(2x guitar 2 verse 1)

Guitar 1 (How could they said...)

|----------------------------------------------------|
|----------------------------------------------------|
|-------------------[9]------------------------------|
|-7h9-7h9-7h9-7h9-7-----7h9-7h9-7h9-7h9-7-4----------|
|----------------------------------------------------|
|----------------------------------------------------|

Guitar 2 (How could they said...)

|------------------[7]-------------------------------|
|----------------------------------------------------|
|-7h9-7h9-7h9-7h9-7---7h9-7h9-7h9-7h9-7-4------------|
|----------------------------------------------------|
|----------------------------------------------------|
|----------------------------------------------------|

Guitar 1 & 2 (chorus)

|-----------------------------------------------|
|-----------------------------------------------|
|--------------------------------44-5-7-5-4-2---|
|-5-5-555-5--4-4-555-4-5-5-555-5----------------|
|-7-7-777-7--5-5-555-5-3-3-333-3----------------|
|-----------------------------------------------|

(repeat intro)(repeat verse to chorus)

Guitar 2 (after chorus)

|--------------------------------|
|--------------------------------|
|--------------------------------|
|----2-4--4-2-0----|-2-----------|
|-2-2-----------4--|-2-----------|
|------------------|-2-----------|

Guitar 2 (bridge intro)

(HOHO)
|-----------------------------|
|-----------------------------|
|-----0-----0-----0-----0-----|
|---5-----4-----5-----7-------|
|-7-----5-----3-----5---------|
|-----------------------------|

(YEAH)
|-----------------------------|
|-----------------------------|
|-----0-----0-----0-----0-----|
|---5-----4-----5-----4-------|
|-7-----5-----3-----2---------|
|-----------------------------|

(repeat HOHO)

|------------------------------|
|---------------------0--------|
|-----0-----0-----0h2----------|
|---4-----5-----4--------------|
|-2-----3-----2----------------|
|------------------------------|

Guitar 1 (bridge)

|---------------------------------|
|---------------------------------|
|---7-5-4--7--5-4----5-4----------|
|---------------------------------|
|-7------5--3-----5-2---5-3/7-----|
|---------------------------------|

Guitar 2 (bridge)

|----------------------------------|
|----------------------------------|
|----------------------------------|
|---7-5-4--7--5-4-----5-4----------|
|-7------5---3----3-2-----5-3/7----|
|----------------------------------|

Guitar 1 (ins)

|------------------------------------|
|------------------------------------|
|---7-5-4--[7]--5-4-----5-4----------|
|------------------------------------|
|-7------5----3-----5-2----5-3/7-----|
|------------------------------------|

Guitar 2 (ins)

|----------------------------------|
|----------------------------------|
|----------------------------------|
|---7-5-4--7--5-4-----5-4----------|
|-7------5---3----3-2-----5-3/7----|
|----------------------------------|

Guitar 1 & 2 (before adlib)

|---------------------------------------------------|
|---------------------------------------------------|
|---------------------------------------------------|
|---------------------------------------------------|
|-14-14--15-14-12-10-12-10-12-10-15-15--------------|
|-14-14--15-14-12-10-12-10-12-10-15-15--------------|

|-------------------------------------------|
|-------------------------------------------|
|-------------------------------------------|
|-------------------------------------------|
|-15-14-12-10-12-10-12-10-14----------------|
|-15-14-12-10-12-10-12-10-14----------------|


errrrr!!! sorry if this is not complete, this is my 1st tab, i know this is not 100% 
correct. But i give you a pattern.

thank you!!!
\m/^_^\m/
comments
We did not receive enough feedback on this tab! Please rate:
print report bad tab
1 2 3 4 5
I want to post or [tab]
guest
You may want to rate the tab now too:
select rating
Please do not post tabs as comments. Select "correction" instead!