Oops, an error
Loading. Please wait.

A-Punk Bass Tab

version 1
version 1

Whole song

Interactive

59,589 views 36 this week
1 commentread comment
1 2 3 4 5
x 4
add to favorites
launch autoscroll
font size
0
reset
guitar tuner
Autoscroll
slow
fast
+/-
esc
set tempo
stop
Help us to improve Ultimate-Guitar.com Take our survey!
×
Tabbed By : jaronthebassist

                                  A-Punk                                   

                                                            Vampire Weekend
Bass


     W                   W                    H         H         
G|-------------------|-------------------|----------------------|
D|-------------------|-------------------|----------------------|
A|-------------------|-------------------|--12--------10--------|
E|-------------------|-------------------|----------------------|


     Q     Q     Q     Q        E   E   E   E   E   E  E   E   
G|--------------------------|---------------------------------|
D|--12----12----12----12----|----------11--------------9------|
A|--------------------------|--12--12------12--10--10-----10--|
E|--------------------------|---------------------------------|


     E   E   E   E   E   E   E   E      Q     Q     Q     Q     
G|----------11------12------11------|--------------------------|
D|--12--12------12------12------12--|--------------------------|
A|----------------------------------|--12----12----10----10----|
E|----------------------------------|--------------------------|


     E   E   E   E   E   E   E   E     Q    Q    Q    Q     
G|----------------------------------|----------------------|
D|--12--12--12--12--12--12--12--12--|----------------------|
A|----------------------------------|----------------------|
E|----------------------------------|--5----5----3----3----|


    E  E  E  E  E  E  E  E        E   E   E   E   E   E  E   E   
G|--------------------------||----------------------------------|
D|--------------------------||*----------11--------------9------|
A|--5--5--5--5--5--5--5--5--||*--12--12------12--10--10-----10--|
E|--------------------------||----------------------------------|


     E   E   E   E   E   E   E   E   3x   Q     Q     Q     Q     
G|----------11------12------11-------||--------------------------|
D|--12--12------12------12------12--*||--------------------------|
A|----------------------------------*||--12----12----10----10----|
E|-----------------------------------||--------------------------|


     E   E   E   E   E   E   E   E     Q    Q    Q    Q     
G|----------------------------------|----------------------|
D|--12--12--12--12--12--12--12--12--|----------------------|
A|----------------------------------|----------------------|
E|----------------------------------|--5----5----3----3----|


    E  E  E  E  E  E  E  E        E   E   E   E   E   E  E   E   
G|--------------------------||----------------------------------|
D|--------------------------||*----------11--------------9------|
A|--5--5--5--5--5--5--5--5--||*--12--12------12--10--10-----10--|
E|--------------------------||----------------------------------|


     E   E   E   E   E   E   E   E   3x   Q     Q     Q     Q     
G|----------11------12------11-------||--------------------------|
D|--12--12------12------12------12--*||--------------------------|
A|----------------------------------*||--12----12----10----10----|
E|-----------------------------------||--------------------------|


     E   E   E   E   E   E   E   E     Q    Q    Q    Q     
G|----------------------------------|----------------------|
D|--12--12--12--12--12--12--12--12--|----------------------|
A|----------------------------------|----------------------|
E|----------------------------------|--5----5----3----3----|


    E  E  E  E  E  E  E  E        E   E   E   E   E   E   E   E   
G|--------------------------||-----------------------------------|
D|--------------------------||*--12--12--12--12--12--12--12--12--|
A|--5--5--5--5--5--5--5--5--||*----------------------------------|
E|--------------------------||-----------------------------------|


     E   E   E   E   E   E   E   E      E   E   E   E   E   E   E   E   
G|----------------------------------|----------------------------------|
D|--12--12--12--12--12--12--12--12--|--12--12--12--12--12--12----------|
A|----------------------------------|--------------------------10--12--|
E|----------------------------------|----------------------------------|


     E   E   E   E   E   E   E   E   3x   E   E   E   E   E   E   E   E   
G|-----------------------------------||----------------------------------|
D|--12----------12----------12------*||--12--12--12--12--12--12--12--12--|
A|------10--12------10--12------12--*||----------------------------------|
E|-----------------------------------||----------------------------------|


     E   E   E   E   E   E   E   E      H         H         
G|----------------------------------|----------------------|
D|--12--12--12--12--12--12--12--12--|--12--------12--------|
A|----------------------------------|----------------------|
E|----------------------------------|----------------------|


     Q     Q     Q     Q        E   E   E   E   E   E  E   E   
G|--------------------------|---------------------------------|
D|--12----12----12----12----|----------11--------------9------|
A|--------------------------|--12--12------12--10--10-----10--|
E|--------------------------|---------------------------------|


     E   E   E   E   E   E   E   E      E   E   E   E   E   E  E   E   
G|----------11------12------11------|---------------------------------|
D|--12--12------12------12------12--|----------11--------------9------|
A|----------------------------------|--12--12------12--10--10-----10--|
E|----------------------------------|---------------------------------|


     E  E  E  E  E  E  E  E        E   E   E   E   E   E  E   E   
G|---------------------------||----------------------------------|
D|--12-----------------------||*----------11--------------9------|
A|---------------------------||*--12--12------12--10--10-----10--|
E|---------------------------||----------------------------------|


     E   E   E   E   E   E   E   E   3x   Q     Q     Q     Q     
G|----------11------12------11-------||--------------------------|
D|--12--12------12------12------12--*||--------------------------|
A|----------------------------------*||--12----12----10----10----|
E|-----------------------------------||--------------------------|


     E   E   E   E   E   E   E   E     Q    Q    Q    Q     
G|----------------------------------|----------------------|
D|--12--12--12--12--12--12--12--12--|----------------------|
A|----------------------------------|----------------------|
E|----------------------------------|--5----5----3----3----|


    E  E  E  E  E  E  E  E        E   E   E   E   E   E  E   E   
G|--------------------------||----------------------------------|
D|--------------------------||*----------11--------------9------|
A|--5--5--5--5--5--5--5--5--||*--12--12------12--10--10-----10--|
E|--------------------------||----------------------------------|


     E   E   E   E   E   E   E   E   3x   Q     Q     Q     Q     
G|----------11------12------11-------||--------------------------|
D|--12--12------12------12------12--*||--------------------------|
A|----------------------------------*||--12----12----10----10----|
E|-----------------------------------||--------------------------|


     E   E   E   E   E   E   E   E     Q    Q    Q    Q     
G|----------------------------------|----------------------|
D|--12--12--12--12--12--12--12--12--|----------------------|
A|----------------------------------|----------------------|
E|----------------------------------|--5----5----3----3----|


    E  E  E  E  E  E  E  E        E   E   E   E   E   E   E   E   
G|--------------------------||-----------------------------------|
D|--------------------------||*--12--12--12--12--12--12--12--12--|
A|--5--5--5--5--5--5--5--5--||*----------------------------------|
E|--------------------------||-----------------------------------|


     E   E   E   E   E   E   E   E      E   E   E   E   E   E   E   E   
G|----------------------------------|----------------------------------|
D|--12--12--12--12--12--12--12--12--|--12--12--12--12--12--12----------|
A|----------------------------------|--------------------------10--12--|
E|----------------------------------|----------------------------------|


     E   E   E   E   E   E   E   E   6x   H         H         
G|-----------------------------------||----------------------|
D|--12----------12----------12------*||--12--------12--------|
A|------10--12------10--12------12--*||----------------------|
E|-----------------------------------||----------------------|


     Q     Q     Q     Q        E   E   E   E   E   E  E   E   
G|--------------------------|---------------------------------|
D|--12----12----12----12----|----------11--------------9------|
A|--------------------------|--12--12------12--10--10-----10--|
E|--------------------------|---------------------------------|


     E   E   E   E   E   E   E   E      E   E   E   E   E   E  E   E   
G|----------11------12------11------|---------------------------------|
D|--12--12------12------12------12--|----------11--------------9------|
A|----------------------------------|--12--12------12--10--10-----10--|
E|----------------------------------|---------------------------------|


     E  E  E  E  E  E  E  E    
G|---------------------------||
D|--12-----------------------||
A|---------------------------||
E|---------------------------||



Duration Legend
---------------
W - whole
H - half
Q - quarter
E - 8th
S - 16th
T - 32nd
X - 64th
. - note dotted
|-n-|  - n-tuplets
Suggest correction
comments
print report bad tab
1 comment total.
0 reply
rondizzle 272 Nov 18, 2009 05:27 PM

This is how I hear it instead of the quarter notes. Iono I might be wrong. But other than that its perfect :]


E E E E E E E E
----------------------------------|
----------------------------------|
--12--12--12--12--10--10--10--10--|
----------------------------------|

E E E E E E E E
----------------------------------|
--12--12--12--12--12--12--12--12--|
----------------------------------|
----------------------------------|

E E E E E E E E
--------------------------|
--------------------------|
--------------------------|
--5--5--5--5--3--3--3--3--|

E E E E E E E E
--------------------------|
--------------------------|
--5--5--5--5--5--5--5--5--|
--------------------------|

guest
You may want to rate the tab now too:
select rating
Wanna post a correction for this tab? Suggest correction