Oops, an error
Loading. Please wait.
We have an official Campus tab made by UG professional guitarists. Check out the tab »
×
103 views 3 this week
no commentswrite comment
1 2 3 4 5
3 more votes to show rating
add to favorites
×
Save as Personal and add changes to this tab that will be seen only by you. Learn more ›
×
You can save this tab as Personal to edit and correct it or add notes. All changes will be seen only by you. Learn more »
launch autoscroll
font size
0
reset
guitar tuner
edit
Autoscroll
slow
fast
+/-
esc
set tempo
stop
Author
Song: Campus
Artist: Vampire Weekend
Album: Vampire Weekend

[Intro]

The main bass line in this song is just a G major scale.
G|---------------------------------------------------------------| 
D|---------------------------------14----16--17------------------| 
A|---------------14----15----17----------------------------------| x3
E|---15-15-17-15----15----15----15----15--------15--15-----------|

[Verse]

G|---------------------------------------------------------------| 
D|---------------------------------14----16--17------------------| 
A|---------------14----15----17----------------------------------| x8
E|---15-15-17-15----15----15----15----15--------15--15-----------|

I wake up
My shoulder's cold
I've got to leave here
Before I go
I pull my shirt on
Walk out the door
Drag my feet along the floor
I pull my shirt on
Walk out the door
Drag my feet along the floor

[Pre-Chorus]

G|---------------------------------------------------------------|
D|---------------------------------------------------------------|
A|----------5-------------5------------5-----------5-------------|
E|---3-------------3------------3-------------3------------------|

Then I see you
You're walking cross the campus
Cruel professor
Studying romances

[Chorus]

G|------------------------------------------------------------------------------|
D|------------------------------------------------------------------------------|
A|------------------------------------------------------------------------------| x2
E|---3-3-3-3/10-10-10-10\8-8-8-8-8-8-8-8--3-3-3-3/10-10-10-10\8-8-8-8-8-8-8-8---|

How am I supposed to pretend
I never want to see you again?
How am I supposed to pretend
I never want to see you again? 

[Interlude]

G|---------------------------------------------------------------| 
D|---------------------------------14----16--17------------------| 
A|---------------14----15----17----------------------------------| x2
E|---15-15-17-15----15----15----15----15--------15--15-----------|

[Verse]

G|---------------------------------------------------------------| 
D|---------------------------------14----16--17------------------| 
A|---------------14----15----17----------------------------------| x4
E|---15-15-17-15----15----15----15----15--------15--15-----------|

Walk to class
In front of ya
Spilled kefir
On your keffiyah
You look inside
And turn to the door
Drag your feet along the floor

[Pre-Chorus]

G|---------------------------------------------------------------|
D|---------------------------------------------------------------|
A|----------5-------------5------------5-----------5-------------|
E|---3-------------3------------3-------------3------------------|

Then I see you
You're walking cross the campus
Cruel professor
Studying romances

[Chorus]

G|------------------------------------------------------------------------------|
D|------------------------------------------------------------------------------|
A|------------------------------------------------------------------------------| x2
E|---3-3-3-3/10-10-10-10\8-8-8-8-8-8-8-8--3-3-3-3/10-10-10-10\8-8-8-8-8-8-8-8---|

How am I supposed to pretend
I never want to see you again?
How am I supposed to pretend
I never want to see you again? 

[Bridge]

G|---------------------------------------------------------------------|
D|---------------------------------------------------------------------|
A|---------------------------------------------------------------------|  x12
E|---3-3-3-3-3-3-3-3-5-5-5-5-5-5-5-5-7-7-7-7-7-7-7-7-3-3-3-3-3-3-3-3---|

In the afternoon
You're out on the stone and grass
And I'm sleeping on the balcony
After class

In the afternoon
You're out on the stone and grass
And I'm sleeping on the balcony
After class

In the afternoon
You're out on the stone and grass
And I'm sleeping on the balcony
After class

In the afternoon
You're out on the stone and grass
And I'm sleeping on the balcony
After class

[Outro]
G|---------------------------------------------------------------| 
D|---------------------------------14----16--17------------------| 
A|---------------14----15----17----------------------------------| x7
E|---15-15-17-15----15----15----15----15--------15--15-----------|

            
            
Suggest correction
Creating personal tab
Creating personal tab
You can edit any tab online and save it as your Personal.

You can edit, replace or remove any tab part or add personal notes – all changes will be seen only by you.

Personal tabs can be accessed anytime from any device, even offline.
Learn more »
Give kudos to tab author, rate the tab!
1 2 3 4 5
comments
print report bad tab
guest
You may want to rate the tab now too:
select rating
Wanna post a correction for this tab? Suggest correction