Oops, an error
Loading. Please wait.
We have an official Cape Cod Kwassa Kwassa tab made by UG professional guitarists. Check out the tab »
×
22,745 views 21 this week
5 commentsread comments
1 2 3 4 5
x 8
add to favorites
×
Save as Personal and add changes to this tab that will be seen only by you. Learn more ›
×
You can save this tab as Personal to edit and correct it or add notes. All changes will be seen only by you. Learn more »
launch autoscroll
font size
0
reset
guitar tuner
edit
Autoscroll
slow
fast
+/-
esc
set tempo
stop
Difficulty
intermediate
Tabbed By: Vincent Verheyden/ Philip West
E-mail:

Tuning: Standard

The guitar starts it out (you’ll have to listen to how many times you play each one but 
all there is to it)
INTRO
G|--------------------------------------------------------------|
D|--------------------------------------------------------------|
A|-555----55----------------------------------------------------|
E|--------------------------------------------------------------|

VERSE/BRIDGE 			   After 1st chorus
G|-----------------------------| -----------------------------|
D|------474--------------------| ----474----------------------|
A|--5545---5-22-44-5-555-------| 5545---5-22-44-5/14\5--------|
E|-------------3--5------------| -----------3--5--------------|

CHORUS
G|--------------------------------------------------------------|
D|--------------------------------------------------------------|
A|-22-44-5-555--------------------------------------------------|
E|---3--5-------------------------------------------------------|

POST-CHORUS
G|---------------------66-66-6-------------------------------------------|
D|--------5----55-55-5---5--5-5------------------------------------------|
A|----5-545-545--5--5-5---------5----------------------------------------|
E|0-5--------------------------------------------------------------------|

| / slide up
| \ slide down
| h hammer-on
| p pull-off
| ~ vibrato
| + harmonic
| x Mute note
============================================================================
Suggest correction
Creating personal tab
Creating personal tab
You can edit any tab online and save it as your Personal.

You can edit, replace or remove any tab part or add personal notes – all changes will be seen only by you.

Personal tabs can be accessed anytime from any device, even offline.
Learn more »
comments
print report bad tab
5 comments total. Showing first comments.
0 reply
jrhallman 10 Sep 19, 2008 08:33 AM

i just tried playing this with the song and this sounds nothing like it. maybe its a different version but this doesnt fit what i hear by a long shot

0 reply
bradcarter 31 Sep 30, 2009 09:37 PM

jrhallman, i'm fairly certain there's only one version of this song, and it fits perfectly for me.

0 reply
rsmalley2009 52 Nov 30, 2010 03:17 PM

I think what makes this tab so frustrating is that the rhythm is written like a crazy person. Instead of playing the 5-4-5 part really fast, it's more of a smooth pull-off hammer-on thing.

VERSE/BRIDGE
G|------------------------------------|
D|----------4-7-4---------------------|
A|--5--5p4h5------5-22-44-5--555------|
E|--------------------3--5------------|

POST-CHORUS
G|---------------------------------6--6------|
D|----------------4-------55--55--7-7--7-----|
A|--------5--5p4h5-5-4-5----7---7-------7----|
E|--0--5-------------------------------------|

|
|
After the line, it goes into triplets. I spaced it that way (even though they have no rests between them) so you can get the feel of it.

guest
Wanna post a correction for this tab? Suggest correction