Oops, an error
Loading. Please wait.

Cape Cod Kwassa Kwassa Tab

version 1
version 1

Whole song

Interactive

67,103 views 6 this week
8 commentsread comments
1 2 3 4 5
x 13
add to favorites
launch autoscroll
font size
0
reset
how to read this tab
guitar tuner
Autoscroll
slow
fast
+/-
esc
set tempo
stop
Help us to improve Ultimate-Guitar.com Take our survey!
×
Author
Difficulty
http://www.vampireweekend.com/
awesome band, Pretty sure this is right

Intro/Verse
e|-------------------------------------------|
B|--77--1010--87-----------------------------|
G|--77--7-7------9h11p9-7--------------------|
D|--------------------------9----11----12----|
A|---------------------------10----12--12----|
E|-------------------------------------------|x12

Chorus
e|---------------|
B|---------------|
G|---------------|
D|--9--1111--12--|
A|--10-1212--12--|
E|---------------|x8



Bridge
e|------------------------------------------------|
B|---------------------12-----12-----14-----14----|
G|-----------------------1211---1211---1412---1412|
D|--9~~~-11~~--12---------------------------------|
A|--10~~-12~~--12---------------------------------|
E|------------------------------------------------|x1

the rest of the song is: 
Verse  x7
Chorus x8
Bridge x1
Verse  x1
Rest
Chorus x10

End.

and it's not WRONG, its just a different way to play the CORRECT melody.
sue me.
Suggest correction
comments
print report bad tab
8 comments total. Showing first comments.
0 reply
.pip. 10 Dec 22, 2007 01:30 AM

Just a small correction:

Intro/Verse

 e|-------------------------------------------|
B|--77--1010--87-----------------------------|
G|--77--7-7------9h11p9-7--------------------|
D|--------------------------9----11----12----|
A|---------------------------10----12--12----|
E|-------------------------------------------|


0 reply
Addis Ababa 132 Dec 28, 2007 09:24 PM

awesome job!

0 reply
someloudthunder 217 Jan 07, 2008 11:14 PM

fixed that and an error i made, thanks for the correction

guest
You may want to rate the tab now too:
select rating
Wanna post a correction for this tab? Suggest correction