Oops, an error
Loading. Please wait.

Cape Cod Kwassa Kwassa Tab

version 2
version 2

Whole song

Interactive

242,137 views 273 this week
18 commentsread comments
1 2 3 4 5
x 107
add to favorites
launch autoscroll
font size
0
reset
how to read this tab
guitar tuner
×
Best way to learn
"Cape Cod Kwassa Kwassa"
Autoscroll
slow
fast
+/-
esc
set tempo
stop
Difficulty
novice
Previous version was played too high on the fretboard.  Ezra rarely leaves the top two 
when he doesn't have to.  That helps his very open, clean, afro-twangy sort of sound.


[Intro/verse]

e|--2-2--5-5--3-2-0h2p0------------------------|
B|--3-3--2-2--3--------3---0---2----3----------|
G|---------------------------0---2--2----------|
D|---------------------------------------------|
A|---------------------------------------------|
E|---------------------------------------------|


For the "Is your bed made?" part, play these 2-note chords.  Play the second twice.

e|----------------------|
B|--0---2---3-----------|
G|--0---2---2-----------|
D|----------------------|
A|----------------------|
E|----------------------|


Use them again for the first time through "Feels so unnatural, Peter Gabriel too".  For 
second time through that line, play this little arpeggio:

e|--7-----7-----9-------9----------------------|
B|----8-----8-----10------10-------------------|
G|------9-----9------11------11----------------|
D|---------------------------------------------|
A|---------------------------------------------|
E|---------------------------------------------|

Then back to the verse figure.



************************************

| h  Hammer-on
| p  Pull-off

************************************
Suggest correction
comments
print report bad tab
18 comments total. Showing first comments.
+21 reply
supercres 10 Feb 08, 2008 05:14 PM

I tabbed this, but it has a typo, the first line should be:

Intro/verse:
e|--2-2--5-5--3-2-0h2p0------------------------|
B|--3-3--3-3--3--------3---0---2----3----------|
G|---------------------------0---2--2----------|
D|---------------------------------------------|
A|---------------------------------------------|
E|---------------------------------------------|

+1 reply
Ivy 15 Aug 26, 2008 01:45 PM

perfect tab! i love love love this song! thanks!

+3 reply
Mebooo 10 Oct 20, 2008 04:45 AM

good tab altough i think the pm bit after "peter gabriel too" is

b---0------2-------3---
g-----0------2-----2---
d-------0------2---0---

everything else is perfect!

guest
You may want to rate the tab now too:
select rating
Wanna post a correction for this tab? Suggest correction