Oops, an error
Loading. Please wait.

Cape Cod Kwassa Kwassa Tab

version 5
version 5

Whole song

Interactive

1,829 views 1 this week
no commentswrite comment
1 2 3 4 5
3 more votes to show rating
add to favorites
launch autoscroll
font size
0
reset
how to read this tab
guitar tuner
Autoscroll
slow
fast
+/-
esc
set tempo
stop
Help us to improve Ultimate-Guitar.com Take our survey!
×
There are other tabs up for this tune, but they are incomplete and some parts I
think are played differently - but maybe that's just me... This is my first tab...


MAIN RIFF...

e|----------------------------------------------------------------------|
B|-7-7------10-10------8---7---5h7p5------------------------------------|
G|-7--------11----------------------7------4--------6--------7----------|
D|-------------------------------------------5--------7------7----------|
A|----------------------------------------------------------------------|
E|----------------------------------------------------------------------|


CHORUS...

e|-----------------------------------|
B|-----------------------------------|
G|--4-4------6-6------7--------------|
D|--5--------7--------7--------------|
A|-----------------------------------|
E|-----------------------------------|


INTERLUDE...

G
Feels so unnatural,
A
Peter Gabriel

BASS & DRUMS BREAK

(Triplets...)

   (--3--)(--3--)
e|--7------7----------|
B|----8------8--------|
G|------9------9------|
D|--------------------|
A|--------------------|
E|--------------------|
   Feels so unnatural,

   (--3--)(--3--)
e|--9------9----------|
B|----8------8--------|
G|------9------9------|
D|--------------------|
A|--------------------|
E|--------------------|
      Peter Gabriel


BACK TO MAIN RIFF...


You have all the parts now listen to the record to piece it together...
Suggest correction
Give kudos to tab author, rate the tab!
1 2 3 4 5
comments
print report bad tab
guest
You may want to rate the tab now too:
select rating
Wanna post a correction for this tab? Suggest correction