Oops, an error
Loading. Please wait.
We have an official White Sky tab made by UG professional guitarists. Check out the tab »
×
1,796 views 1 this week
no commentswrite comment
1 2 3 4 5
x 4
add to favorites
×
Save as Personal and add changes to this tab that will be seen only by you. Learn more ›
×
You can save this tab as Personal to edit and correct it or add notes. All changes will be seen only by you. Learn more »
launch autoscroll
font size
0
reset
guitar tuner
edit
Autoscroll
slow
fast
+/-
esc
set tempo
stop
G--------7--7--9--9----------|
D--7--7----------------------|
A--------------------7--7----|
E----------------------------| 

G--------7--7--9--9----------|
D--7--7----------------------|
A--------------------7--7----|
E----------------------------| 

G--------7--7--9--9----------|
D--7--7----------------------|
A--------------------7--7----|
E----------------------------|

G--------7--7--9--9----------|
D--7--7----------------------|
A--------------------7--7----|
E----------------------------| 


(Verse 1)

G--------7--7--9--9----------|
D--7--7----------------------|
A--------------------7--7----|
E----------------------------| 

G--------7--7--9--9----------|
D--7--7----------------------|
A--------------------7--7----|
E----------------------------| 

G--------7--7--9--9----------|
D--7--7----------------------|
A--------------------7--7----|
E----------------------------|

G--------7--7--9--9----------|
D--7--7----------------------|
A--------------------7--7----|
E----------------------------| 


G----------7------7----------------------|
D--7--7-------9---------7-------11-------|
A--------------------7-------7-------7---|
E----------------------------------------|

G----------7------7----------------------|
D--7--7-------9---------7-------11-------|
A--------------------7-------7-------7---|
E----------------------------------------|

G----------7------7----------------------|
D--7--7-------9---------7-------11-------|
A--------------------7-------7-------7---|
E----------------------------------------|

G----------7------7----------------------|
D--7--7-------9---------7-------11-------|
A--------------------7-------7-------7---|
E----------------------------------------|


(Verse 2)

G----------7------7----------------------|
D--7--7-------9---------7-------11-------|
A--------------------7-------7-------7---|
E----------------------------------------|

G----------7------7----------------------|
D--7--7-------9---------7-------11-------|
A--------------------7-------7-------7---|
E----------------------------------------|

G----------7------7----------------------|
D--7--7-------9---------7-------11-------|
A--------------------7-------7-------7---|
E----------------------------------------|

G----------7------7----------------------|
D--7--7-------9---------7-------11-------|
A--------------------7-------7-------7---|
E----------------------------------------|

(Pre-chorus 1)

G--------7--7--9--9----------|
D--7--7----------------------|
A--------------------7--7----|
E----------------------------| 

G--------7--7--9--9----------|
D--7--7----------------------|
A--------------------7--7----|
E----------------------------| 


(Chorus)

G-----------------------------------------------------|
D--7-7-7-7-7-7----------------------------------------|
A--------------5-5-5-5-5-5-7-7-7-7-7-7----------------|
E--------------------------------------7-7-7-7-7-7----| 

G-----------------------------------------------------|
D--7-7-7-7-7-7----------------------------------------|
A--------------5-5-5-5-5-5-7-7-7-7-7-7----------------|
E--------------------------------------7-7-7-7-7-7----| 

G-----------------------------------------------------|
D--7-7-7-7-7-7----------------------------------------|
A--------------5-5-5-5-5-5-7-7-7-7-7-7----------------|
E--------------------------------------7-7-7-7-7-7----| 


G-----------------------------------------------------|
D--7-7-7-7-7-7----------------------------------------|
A--------------5-5-5-5-5-5-7-7-7-7-7-7----------------|
E--------------------------------------7-7-7-7-7-7----| 


G--------7--7--9--9----------|
D--7--7----------------------|
A--------------------7--7----|
E----------------------------| 

G--------7--7--9--9----------|
D--7--7----------------------|
A--------------------7--7----|
E----------------------------| 

G--------7--7--9--9----------|
D--7--7----------------------|
A--------------------7--7----|
E----------------------------|

G--------7--7--9--9----------|
D--7--7----------------------|
A--------------------7--7----|
E----------------------------| 


(Verse 3)

G----------7------7----------------------|
D--7--7-------9---------7-------11-------|
A--------------------7-------7-------7---|
E----------------------------------------|

G----------7------7----------------------|
D--7--7-------9---------7-------11-------|
A--------------------7-------7-------7---|
E----------------------------------------|

G----------7------7----------------------|
D--7--7-------9---------7-------11-------|
A--------------------7-------7-------7---|
E----------------------------------------|

G----------7------7----------------------|
D--7--7-------9---------7-------11-------|
A--------------------7-------7-------7---|
E----------------------------------------|


(Pre-chorus 2)

G--------7--7--9--9----------|
D--7--7----------------------|
A--------------------7--7----|
E----------------------------| 

G--------7--7--9--9----------|
D--7--7----------------------|
A--------------------7--7----|
E----------------------------| 


(Chorus 2)

G-----------------------------------------------------|
D--7-7-7-7-7-7----------------------------------------|
A--------------5-5-5-5-5-5-7-7-7-7-7-7----------------|
E--------------------------------------7-7-7-7-7-7----| 

G-----------------------------------------------------|
D--7-7-7-7-7-7----------------------------------------|
A--------------5-5-5-5-5-5-7-7-7-7-7-7----------------|
E--------------------------------------7-7-7-7-7-7----| 

G-----------------------------------------------------|
D--7-7-7-7-7-7----------------------------------------|
A--------------5-5-5-5-5-5-7-7-7-7-7-7----------------|
E--------------------------------------7-7-7-7-7-7----| 


G-----------------------------------------------------|
D--7-7-7-7-7-7----------------------------------------|
A--------------5-5-5-5-5-5-7-7-7-7-7-7----------------|
E--------------------------------------7-7-7-7-7-7----| 

(Verse 4)

G--------7--7--9--9----------|
D--7--7----------------------|
A--------------------7--7----|
E----------------------------| 

G--------7--7--9--9----------|
D--7--7----------------------|
A--------------------7--7----|
E----------------------------| 

G--------7--7--9--9----------|
D--7--7----------------------|
A--------------------7--7----|
E----------------------------| 

G--------7--7--9--9----------|
D--7--7----------------------|
A--------------------7--7----|
E----------------------------| 


(Pre-chorus 3)

G--------7--7--9--9----------|
D--7--7----------------------|
A--------------------7--7----|
E----------------------------| 

G--------7--7--9--9----------|
D--7--7----------------------|
A--------------------7--7----|
E----------------------------| 


(Chorus 3)

G-----------------------------------------------------|
D--7-7-7-7-7-7----------------------------------------|
A--------------5-5-5-5-5-5-7-7-7-7-7-7----------------|
E--------------------------------------7-7-7-7-7-7----| 

G-----------------------------------------------------|
D--7-7-7-7-7-7----------------------------------------|
A--------------5-5-5-5-5-5-7-7-7-7-7-7----------------|
E--------------------------------------7-7-7-7-7-7----| 

G-----------------------------------------------------|
D--7-7-7-7-7-7----------------------------------------|
A--------------5-5-5-5-5-5-7-7-7-7-7-7----------------|
E--------------------------------------7-7-7-7-7-7----| 


G-----------------------------------------------------|
D--7-7-7-7-7-7----------------------------------------|
A--------------5-5-5-5-5-5-7-7-7-7-7-7----------------|
E--------------------------------------7-7-7-7-7-7----| 

G-----------------------------------------------------|
D--7-7-7-7-7-7----------------------------------------|
A--------------5-5-5-5-5-5-7-7-7-7-7-7----------------|
E--------------------------------------7-7-7-7-7-7----| 

G-----------------------------------------------------|
D--7-7-7-7-7-7----------------------------------------|
A--------------5-5-5-5-5-5-7-7-7-7-7-7----------------|
E--------------------------------------7-7-7-7-7-7----| 

G-----------------------------------------------------|
D--7-7-7-7-7-7----------------------------------------|
A--------------5-5-5-5-5-5-7-7-7-7-7-7----------------|
E--------------------------------------7-7-7-7-7-7----| 


G-----------------------------------------------------|
D--7-7-7-7-7-7----------------------------------------|
A--------------5-5-5-5-5-5-7-7-7-7-7-7----------------|
E--------------------------------------7-7-7-7-7-7----| 


            
            
Suggest correction
Creating personal tab
Creating personal tab
You can edit any tab online and save it as your Personal.

You can edit, replace or remove any tab part or add personal notes – all changes will be seen only by you.

Personal tabs can be accessed anytime from any device, even offline.
Learn more »
comments
print report bad tab
guest
You may want to rate the tab now too:
select rating
Wanna post a correction for this tab? Suggest correction