Oops, an error
Loading. Please wait.

316 Tab

version 4
version 4

Whole song

Interactive

310 views 1 this week
no commentswrite comment
1 2 3 4 5
please rate
add to favorites
launch autoscroll
font size
0
reset
how to read this tab
guitar tuner
Autoscroll
slow
fast
+/-
esc
set tempo
stop
Help us to improve Ultimate-Guitar.com Take our survey!
×
Author
Difficulty
intermediate
---------------------------------------------------------------------------------|
-4-----4-6-----6-8----------8-10----------10-8----------8-7-----7-5-----5-7------|
--6---6---8---8---10------10----12------12----10------10---9---9---7---7---9---9-|
---6-6-----8-8------10--10--------12--12--------10--10------9-9-----7-7-----9-9--|
----6-------8---------10------------12------------10---------9-------7-------9---|
---------------------------------------------------------------------------------|


---------------------------------------------------------------------------------|
7-4-----4-6-----6-1-----1-3-----3-4-----4-6---------------------6-8----------8-9-|
---6---6---8---8---3---3---5---5---6---6---8---8---8---8---8---8---10------10----|
----6-6-----8-8-----3-3-----5-5-----6-6-----8-8-8-8-8-8-8-8-8-8------10--10------|
-----6-------8-------3-------5-------6-------8-8-8-8-8-8-8-8-8---------10--------|
---------------------------------------------------------------------------------|


--------------------------------------------------------------------------------|
----------9-7-----7-8----------8-6-----6-8----------8-4-------------4-6-----6---|
11------11---9---9---10------10---8---8---10------10---6---6---6---6---8---8----|
--11--11------9-9------10--10------8-8------10--10------6-6-6-6-6-6-----8-8-----|
----11---------9---------10---------8---------10---------6-6-6-6-6-------8------|
--------------------------------------------------------------------------------|


---------------------------------------------------------------------------------|
----8----------8-9----------9-11----------11-12----------12-14-------------------|
----14---------------------------------------------------------------------------|
-10------10---11------11----13------13-----14------14-----16------16------16-----|
---10--10-------11--11--------13--13---------14--14---------16--16--16--16-------|
-----10-----------11------------13-------------14-------------16------16---------|
---------------------------------------------------------------------------------|

                         _________DO THIS PART FOR 10 SECONDS______
---------------------------------------------------------------------------------|
16------------------16-18------------------------------------------18-19---------|
--18------18------18-----20------20------20------20------20------20-----21-------|
----18--18--18--18---------20--20--20--20--20--20--20--20--20--20---------21--21-|
------18------18-------------20------20------20------20------20-------------21---|
---------------------------------------------------------------------------------|
                                                      FROM THIS POINT ON I'M NOT
                                                      SURE IF IT'S RIGHT.
------------------------------------------7-9-5-7-3-5-2-4-1---------------------|
------------------19-----------7-9-5-7-3-5-----------------4-----4-6------------|
21------21------21--7-9-5-7-3-5-----------------------------6---6---8---8-6-4-6-|
--21--21--21--21---------------------------------------------6-6-----8-8--------|
----21------21------------------------------------------------6-------8---------|
--------------------------------------------------------------------------------|


----------7-5-3-5-3-5-3-5-3-5-3-5-3-----------------7-5-7-5-7-5-7-5-7-5-7-5-7-5-|
-----7-5-3---------------------------------------7-5----------------------------|
7-9-7------------------------------3-5-7-9-10-9-7-------------------------------|
--------------------------------------------------------------------------------|
--------------------------------------------------------------------------------|
--------------------------------------------------------------------------------|

FADE IN NOTE AND HOLD  TAP BAR  BAR DIVE   BRING BAR   DIVE THE BAR DOWN
  (DELAY OFF)            2X                BACK UP      WITH THE HARMONIC
---7---------------------2----------0--------------------------------------------|
---------------------------------------------------------------------------------|
-------------------------------------------------H-------------------H-----------|
-----------------------------------------------------9-------------------3-------|
---------------------------------------------------------------------------------|
---------------------------------------------------------------------------------|
---------------------------------------------------------------------------------|
Suggest correction
Give kudos to tab author, rate the tab!
1 2 3 4 5
comments
print report bad tab
guest
You may want to rate the tab now too:
select rating
Please do not post tabs as comments. Select "correction" instead!