Oops, an error
Loading. Please wait.

Aint Talkin Bout Love Bass

version 2
version 2
25,352 views 1 this week
3 commentsread comments
1 2 3 4 5
x 9
add to favorites
launch autoscroll
font size
0
reset
guitar tuner
backing track
0:00
0:00
×
Best way to learn
"Aint Talkin Bout Love"
Autoscroll
slow
fast
+/-
esc
set tempo
stop
Author
AIN'T TALKIN' 'BOUT LOVE - Van Halen
Tabbed by:AXE545
Email:Fireballc2000@aol.com
Tuning:Standard

[Intro: 4x]
G|----------------------------------------------|
D|---------------2--3--------5---0--------------|
A|---0--0--3--0--------3--0------------3--2--3--|
E|----------------------------------3-----------|

[Verse: 4x]
G|------------------------------------|
D|---------------3-----5--------------|   
A|---0--0--3--0-----3---------3--2--3-|
E|-------------------------3----------|

[Chorus: 4x]
G|------------------------|
D|------------------------|
A|---0--0---------3--2--3-|
E|---------3---3----------|

[Verse 2: 4x]
G|-----------------3-----5------------------|
D|---0---0---3--0-----3-----5---------------|   
A|-----------------------------3-----3--2h3-|
E|--------------------------------3---------|

************************************

| h  Hammer-on

************************************
Suggest correction
comments
print report bad tab
3 comments total.
0 reply
TomislavSimic 32 Oct 18, 2014 09:37 AM

Lack of accuracy. Clearly wrong. Missed the whole song by a half an octave, poorly written, half done, translated from guitar guitar guitar guitar guitar guitar guitar guitar guitar guitar guitar.

0 reply
jimrenfroe 10 Nov 25, 2014 09:47 AM

Lack of accuracy. its inaccurate. it should be removed. don't use it find another. i could live with the incorrect tuning mentioned from the start, but it isn't even right.

0 reply
jimrenfroe 10 Nov 25, 2014 09:50 AM

I could live with the tuning error mentioned, but it's still wrong. I found a better one. This is not good. It's so bad I'm not even sure this is the right song for the tab.

guest
You may want to rate the tab now too:
select rating
Wanna post a correction for this tab? Suggest correction