Oops, an error
Loading. Please wait.

Aint Talkin Bout Love Tab

version 3
version 3
23,290 views 9 this week
no commentswrite comment
1 2 3 4 5
x 8
add to favorites
×
Save as Personal and add changes to this tab that will be seen only by you. Learn more ›
×
You can save this tab as Personal to edit and correct it or add notes. All changes will be seen only by you. Learn more »
save as personal
new!
launch autoscroll
font size
0
reset
how to read this tab
guitar tuner
backing track
0:00
0:00
Autoscroll
slow
fast
+/-
esc
set tempo
stop
 *******VAN HALEN --------AINT TALKIN BOUT LOVE*********
                 BY: BRANDON


             TUNING SHOULD BE DROPPED BY HALF A NOTE

                  ENJOY
E-------------------------------------------------------------- 
B---------------------5--6----------------8----------------------
G----------5-------------------5-------------7-------------------   X4
D--------------7---------------------7------------5~-------------
A------7------------------------------------------------3~-2h3---
E---5------------------------------------------------------------
    -----------------------PM-----------------
    
                                
E------------------------------|------|--|-----------------------|
B------------------------------|------|--|-----------------------|
G------------------------------|------|--|-5-5/7--7/9---9/12-----| X2
D-----7--7--7----7--7--7---5---|------|--|-----------------------|
A-----7--7--7----7--7--7---5---|3~-2h3|--|-----------------------|
E-----5--5--5----5--5--5---3---|------|--|-----------------------|
        -PM--      -PM-- 

 
E----------------------------------------------------------------
B---------------------6----8-------------------------------------
G-----------5---------5----7-------------------------------------X4
D--------------7-----------5-------------------------------------
A------7-------------------------3~-2h3--------------------------
E---5------------------------------------------------------------
  -----PM--------



E----------------------------------------------------------------
B----------------------------------------------------------------
G----------------------------------------------------------------
D--7--7--7---7--7--7----5----------------------------------------X4
A--7--7--7---7--7--7----5----3~--2h3-----------------------------
E--5--5--5---5--5--5----3----------------------------------------




E----------------------------------------------------------------
B---------------------6----8-------------------------------------
G-----------5---------5----7-------------------------------------X4
D--------------7-----------5-------------------------------------
A------7-------------------------3~-2h3--------------------------
E---5------------------------------------------------------------
  -----PM--------



E------------------------------|------|--|-----------------------|
B------------------------------|------|--|-----------------------|
G------------------------------|------|--|-5-5/7--7/9---9/12-----| X2
D-----7--7--7----7--7--7---5---|------|--|-----------------------|
A-----7--7--7----7--7--7---5---|3~-2h3|--|-----------------------|
E-----5--5--5----5--5--5---3---|------|--|-----------------------|
        -PM--      -PM-- 


                             solo
E----------------------------------------------------------------
B---5/8-----10-10-10-10-12-----5/8----10-10---12-13--12---8--5---
G----------------------------------------------------------------
D----------------------------------------------------------------
A----------------------------------------------------------------
E----------------------------------------------------------------

E-----------------------------------------------
B--5/8---10  10--12--13--15---13----15-----17---
G-----------------------------------------------
D-----------------------------------------------
A-----------------------------------------------
E-----------------------------------------------

E---15-12-0-12----15-12-0-12-----15-12-0-12----------------------  ---15/1-
B----------------------------------------------------------------  ---------
G----------------------------------------------------------------X2---------
D----------------------------------------------------------------  ---------
A----------------------------------------------------------------  ---------
E----------------------------------------------------------------  ---------

E----------------------------------------------------------------
B----------------------------------------------------------------
G----------------------------------------------------------------
D--7--7--7---7--7--7----5----------------------------------------X4
A--7--7--7---7--7--7----5----3~--2h3-----------------------------
E--5--5--5---5--5--5----3----------------------------------------


E-------------------3--------------------------------------------
B-------3------3-3----3------------------------------------------
G--2-2------2-------------0--------------------------------------
D----------------------------------------------------------------X4
A----------------------------------------------------------------
E----------------------------------------------------------------


E----------------------------------------------------------------
B----------------------------------------------------------------
G--------------------------->5<-------------->5<-----------------
D--------------------->5<------------------------->5<------------
A-----7--7------>5<------------------7---7-------------->5<------
E-----5--5---------------------------5---5-----------------------


E----------------------------------------------------------------
B------------------------------------------------------------>5<-
G-------------------->5<-------->5<------------------------------
D--------------->5<------------------->5<--------------->5<------
A----7--7--->5<-----------------------------7---7--->5<----------
E----5--5-----------------------------------5---5----------------


E------------------------------|------|--|-----------------------|
B------------------------------|------|--|-----------------------|
G------------------------------|------|--|-5-5/7--7/9---9/12-----| 
D-----7--7--7----7--7--7---5---|------|--|-----------------------|
A-----7--7--7----7--7--7---5---|3~-2h3|--|-----------------------|
E-----5--5--5----5--5--5---3---|------|--|-----------------------|
        -PM--      -PM-- 

E----------------------------------------------------------------
B----------------------------------------------------------------
G----------------------------------------------------------------
D--7--7--7---7--7--7----5----------------------------------------X5
A--7--7--7---7--7--7----5----3~--2h3-----------------------------
E--5--5--5---5--5--5----3----------------------------------------


E----------------------------------------------------------------
B---5/8-----10-10-10-10-12-----5/8----10-10---12-13--12---8--5---
G----------------------------------------------------------------
D----------------------------------------------------------------
A----------------------------------------------------------------
E----------------------------------------------------------------


E-----------------------------------------------
B--5/8---10  10--12--13--15---13----15-----17---
G-----------------------------------------------
D-----------------------------------------------
A-----------------------------------------------
E-----------------------------------------------


E---15-12-0-12----15-12-0-12-----15-12-0-12----------------------  ---15/1-
B----------------------------------------------------------------  ---------
G----------------------------------------------------------------X2---------
D----------------------------------------------------------------  ---------
A----------------------------------------------------------------  ---------
E----------------------------------------------------------------  ---------



E------------------------------|------|--|-----------------------|
B------------------------------|------|--|-----------------------|
G------------------------------|------|--|-5-5/7--7/9---9/12-----| 
D-----7--7--7----7--7--7---5---|------|--|-----------------------|
A-----7--7--7----7--7--7---5---|3~-2h3|--|-----------------------|
E-----5--5--5----5--5--5---3---|------|--|-----------------------|
        -PM--      -PM-- 


E----------------------------------------------------------------
B----------------------------------------------------------------
G----------------------------------------------------------------
D--7--7--7---7--7--7----5----------------------------------------X6
A--7--7--7---7--7--7----5----3~--2h3-----------------------------
E--5--5--5---5--5--5----3----------------------------------------


E----------------------------------------------------------------
B----------------------------------------------------------------
G----------------------------------------------------------------
D----------------------------------------------------------------
A-----7----9--10-----7---9----0-----7---9---10---7---9----14/----
E-----5----7--8------5---7----0-----5---7---8----5---7----12/----
Suggest correction
comments
print report bad tab
guest
Wanna post a correction for this tab? Suggest correction