Oops, an error
Loading. Please wait.

Blood And Fire bass

version 1
version 1

Whole song

Interactive

523 views 1 this week
2 commentsread comments
1 2 3 4 5
3 more votes to show rating
add to favorites
×
Save as Personal and add changes to this tab that will be seen only by you. Learn more ›
×
You can save this tab as Personal to edit and correct it or add notes. All changes will be seen only by you. Learn more »
launch autoscroll
font size
0
reset
guitar tuner
edit
Autoscroll
slow
fast
+/-
esc
set tempo
stop
-------------------------------------------------------------------------------
			     BLOOD AND FIRE - Van Halen
-------------------------------------------------------------------------------

Tabbed By : Isaias Garcia (TexasFury)
e-mail: 

Tuning: Half step down (5-string bass)


      Intro                                                                       
      W                   H        Q       W                   H        Q     
F#||-------------------|----------------|-------------------|----------------|
C#||-------------------|----------------|-------------------|----------------|
G#||-------------------|----------------|-------------------|----------------|
D#||-------------------|----------------|-------------------|----------------|
A#||-------------------|----------------|-------------------|----------------|


  W                   W                   H        E  E       H.            
-------------------|-------------------|------------------|----------------|
-------------------|-------------------|------------------|----------------|
-------------------|-------------------|------------------|----------------|
-------------------|-------------------|------------------|----------------|
-------------------|-------------------|--------------5s--|--10------------|


                             Verse 1                                                  
   H.            E   E       E  E  E  E  E  E  E  E     E  E  E  E  E  E  E  E   
-------------------------||--------------------------|--------------------------|
-------------------------||--------------------------|--------------------------|
-------------------------||--------------------------|--------------------------|
-------------------------||--------------------------|--------------------------|
---L-------------L---L\--||--3--3--3--3--3--3--3--3--|--3--3--3--3--3--3--3--3--|


  E  E  E  E  E  E  E  E     E  E  E  E  E  E  E  E   
--------------------------|--------------------------|
--------------------------|--------------------------|
--------------------------|--------------------------|
--------------------------|--------------------------|
--3--3--3--3--3--3--3--3--|--3--3--3--3--3--3--3--3--|


  E  E  E  E  E  E  E  E     E  E  E  E  E  E  E  E   
--------------------------|--------------------------|
--------------------------|--------------------------|
--------------------------|--------------------------|
--------------------------|--------------------------|
--3--3--3--3--3--3--3--3--|--3--3--3--3--3--3--3--3--|


  E  E  E  E  E  E  E     E      E   E   E   E   E   E   E   E   
-----------------------------|----------------------------------|
-----------------------------|----------------------------------|
-----------------------------|----------------------------------|
-----------------------5g10--|--10--10--10--10--10--10--10------|
--3--3--3--3--3--3--3--------|------------------------------10--|


   E   E   E   E   E   E   E   E      E   E   E   E   E   E   E   E   
----------------------------------|----------------------------------|
----------------------------------|----------------------------------|
----------------------------------|----------------------------------|
--10--10--10--10--10--10--10--10--|--10--10--10--10--10--10--10--10--|
----------------------------------|----------------------------------|


   E   E   E   E   E   E   E  E     E  E  E  E  S S E  E  E    
---------------------------------|----------------------------|
---------------------------------|----------------------------|
---------------------------------|----------------------------|
--10--10--10--10--10--10--10--8--|--8--8--8--3--3-3-3--3--3/--|
---------------------------------|----------------------------|


   E   E   E   E   E   E   E   E      E   E   E   E   E   E   E   E   
----------------------------------|----------------------------------|
----------------------------------|----------------------------------|
----------------------------------|----------------------------------|
--10--10--10--10--10--10--10--10--|--10--10--10--10--10--10--10--10--|
----------------------------------|----------------------------------|


   E   E   E   E   E   E   E  E     E  E  E  E  E  E  E  E   
---------------------------------|--------------------------||
---------------------------------|--------------------------||
---------------------------------|--------------------------||
--10--10--10--10--10--10--10--8--|--8--8--8--7--7--7--3--5--||
---------------------------------|--------------------------||


  Pre-chorus 1                                                   
  E  E  E  E  E  E  E  E     E  E  E  E  E  E  E   E   
--------------------------|---------------------------|
--------------------------|---------------------------|
--------------------------|-----------------------12--|
--L--5--5--5--5--5--5--5--|--5--5--5--5--5--5--5------|
--------------------------|---------------------------|


   E  E      Q       E  E  E   E     E  E  Q        E   S   S  S   S  E   
----------------------------------|-------------12g14--12p-11------------|
----------------------------------|---------------------------12p-10-----|
---L--0--10g12----7g12--0--0--12--|--L--0--5-------------------------12--|
----------------------------------|--------------------------------------|
----------------------------------|--------------------------------------|


   E   E   E   E  E  E  E  E     E  E  E  E  E  E  E     E   
------------------------------|-----------------------------|
------------------------------|-----------------------------|
---L--12--12\--0--0--0--0--0--|--0--0--0--0--0--0--0--7g12--|
------------------------------|-----------------------------|
------------------------------|-----------------------------|


   E  E   Q     E  E  E   E     E  E   Q        E   S   S  S   S  E   
-------------------------14--|--L-----14----12g14--12p-11------------|
-----------------------------|----------------------------12p-10-----|
---L--0--12----12--0--0------|-----0-----------------------------12--|
-----------------------------|---------------------------------------|
-----------------------------|---------------------------------------|


  E   E   E   E  E  E  E  E     E  E  E  E  E  E  E    E   
-----------------------------|----------------------------|
-----------------------------|-----------------------5g7--|
--L--12--12\--0--0--0--0--0--|--0--0--0--0--0--0--0-------|
-----------------------------|----------------------------|
-----------------------------|----------------------------|


  E    E  E  E  E  E  E  E      H        Q    E  E     E  E  E  E  E  E  E  E   
-----------------------------|----------------------|--------------------------|
--L--5g7--L------------------|----------------------|--------------------------|
-------------3---------------|----------------------|--------------------------|
----------------5--3--5--L\--|-------------------3--|--L--3--3--3--3--3--2--3--|
-----------------------------|----------------------|--------------------------|


  E  E  E  E  E  E  E  E     E  E  E  E  E  E  E  E   
--------------------------|--------------------------|
--------------------------|--------------------------|
--------------------------|--------------------------|
--3--3--3--3--3--3--3--5--|--L--5--5--5--5--5-----5--|
--------------------------|--------------------5-----|


  E  E  E  E  E  E  E  E     E  E  E  E  E  E  E  E   
--------------------------|--------------------------|
--------------------------|--------------------------|
--------------------------|--------------------------|
--L--5--5--5--5--5--2--3--|--L--3--3--3--3--3--2--3--|
--------------------------|--------------------------|


  E  E  E  E  E  E  E  E     E  E  E  E  E  E  E  E     H        Q    E  E   
--------------------------|--------------------------|----------------------||
--------------------------|--------------------------|----------------------||
--------------------------|--------------------------|-------------------5--||
--L--3--3--3--3--3--3--5--|--5--5--5--5--5--5--5--5--|----------------------||
--------------------------|--------------------------|----------------------||


  Verse 2                                                  
  E  E  E  E  E  E  E  E     E  E  E  E  E  E  E  E   
--------------------------|--------------------------|
--------------------------|--------------------------|
--5--5--5--5--5--5--5--5--|--5--5--5--5--5--5--5--5--|
--------------------------|--------------------------|
--------------------------|--------------------------|


  E  E  E  E  E  E  E  E     E  E  E  E  E  S S E  E   
--------------------------|---------------------------|
--------------------------|---------------------------|
--5--5--5--5--5--5--5--3--|--3--3--3------------------|
--------------------------|-----------3--3--3-3-3--3--|
--------------------------|---------------------------|


  E  E  E  E  E  E  E  E     E  E  E  E  E  E  E  E   
--------------------------|--------------------------|
--------------------------|--------------------------|
--5--5--5--5--5--5--5--5--|--5--5--5--5--5--5--5--5--|
--------------------------|--------------------------|
--------------------------|--------------------------|


  E  E  E  E  E  E  E    E      E   E  E  E  Q     E   E   
----------------------------|-----------------------------|
------------------------10--|--10--10--L--9--9------------|
--5--5--5--5--5--5--5/------|---------------------10--12--|
----------------------------|-----------------------------|
----------------------------|-----------------------------|


   E   E   E   E   E   E   E   E    
----------------------------------||
----------------------------------||
---L--12--12--12--12--12--12--12--||
----------------------------------||
----------------------------------||




Duration Legend
---------------
W - whole
H - half
Q - quarter
E - 8th
S - 16th


Tablature Legend
----------------
L - tied note
g - grace note
h - hammer on
p - pull off
b - bendase down
S - shift slide
s - legato slide
/ -  slide into from below or out of upwards
\ -  slide into from above or out of downwards
~ - vibrato


Get my other tabs for Guitar Pro, Powertab, guitar/bass text and chords at
http://profile.ultimate-guitar.com/TexasFury/contributions/

            
            
Suggest correction
Creating personal tab
Creating personal tab
You can edit any tab online and save it as your Personal.

You can edit, replace or remove any tab part or add personal notes – all changes will be seen only by you.

Personal tabs can be accessed anytime from any device, even offline.
Learn more »
Give kudos to tab author, rate the tab!
1 2 3 4 5
comments
print report bad tab
2 comments total.
0 reply
TexasFury 9,040 Jan 26, 2012 09:16 AM

This tab will be updated when the complete audio file is available.

0 reply
TexasFury 9,040 Feb 16, 2012 08:16 AM

I will get to finishing this next week, been busy working long hours.

guest
You may want to rate the tab now too:
select rating
Wanna post a correction for this tab? Suggest correction