Oops, an error
Loading. Please wait.

Bullethead bass

version 1
version 1

Whole song

Interactive

219 views 1 this week
no commentswrite comment
1 2 3 4 5
3 more votes to show rating
add to favorites
×
Save as Personal and add changes to this tab that will be seen only by you. Learn more ›
×
You can save this tab as Personal to edit and correct it or add notes. All changes will be seen only by you. Learn more »
launch autoscroll
font size
0
reset
guitar tuner
edit
Autoscroll
slow
fast
+/-
esc
set tempo
stop
-------------------------------------------------------------------------------
                             BULLETHEAD - Van Halen
-------------------------------------------------------------------------------


Tabbed By : Isaias Garcia (TexasFury)

Tuning: Half-step down


      Intro                                                                         
      Q    Q      H            E  E  E  E  H           E  E  E  E  E  E  E  E   
F#||------------------------|-----------------------|--------------------------|
C#||------------------------|-----------------------|--------------------------|
G#||------------------------|--5--3-----5--3--------|--3--3--3--3--3--3--------|
D#||-------5/----17\--------|-----------------------|--------------------3--0--|


  E  E  E  E  H           E  E  E  E  E  E  E  E     E  E  E  E  H         
-----------------------|--------------------------|-----------------------|
-----------------------|--------------------------|-----------------------|
--3--------3-----------|--------------------------|--5--3-----5--3--------|
-----5--------5--------|--5--5--5--5--5--5--3--0--|-----------------------|


  E  E  E  E  E  E  E  E     E  E  E  E  E  E  Q      
--------------------------|--------------------------|
--------------------------|--------------------------|
--3--3--3--3--3--3--------|--3--------3--------------|
--------------------3--0--|-----5--------5--5--5/----|


                                    Verse 1                      
   E   E   E   E   E   E  E  E      E  E  E  E  E  E  Q     
--------------------------------||-------------------------|
--------------------------------||-------------------------|
--12--12--11--11--10--10--9--7--||--5--3-----5--3--3--3----|
--------------------------------||-------------------------|


  E  E  E  E  E  E  E  E     E  E  E  E  H           E  E  E  E  E  E  E  E   
--------------------------|-----------------------|--------------------------|
--------------------------|-----------------------|--------------------------|
--3--3--3--3--3--3--------|--3--------3-----------|--------------------------|
--------------------3--0--|-----5--------5--------|--5--5--5--5--5--5--3--0--|


  E  E  E  E  H           E  E  E  E  E  E  E  E     E  E  E  E  Q    Q      
-----------------------|--------------------------|-------------------------|
-----------------------|--------------------------|-------------------------|
--5--3-----5--3--------|--3--3--3--3--3--3--------|--3--------3-------------|
-----------------------|--------------------3--0--|-----5--------5----5/----|


                           Chorus 1                                                 
   H         Q    Q        E  E  E  E  E  E  E  E     E  E   Q     Q    Q     
-----------------------||--------------------------|-------------------------|
-----------------------||--------------------------|-------------------------|
--12\--------7----6----||--6--5-----5-----3--5--5--|---------------4----3----|
-----------------------||--------------------------|-----0--12\--------------|


  E  E  E  E  E  E  Q       E  E   Q     Q    Q       E  E  E  E  E  E  E  E   
-------------------------|-------------------------|--------------------------|
-------------------------|-------------------------|--------------------------|
--3----------------------|---------------7----6----|--6--5-----5-----3--5--5--|
-----5-----5--0--3--5----|-----5--10\--------------|--------------------------|


  E  E   Q     Q    Q       E  E  E  E  E  E  Q       E  E   Q     Q    Q     
-------------------------|-------------------------|-------------------------|
-------------------------|-------------------------|-------------------------|
---------------4----3----|--3----------------------|--------------------6----|
-----0--12\--------------|-----5-----5-----3--5----|-----5--10\----0---------|


  E  E  E  E  E  E  Q       E  E  Q    Q     E  E     Q    E  E  E  E  Q     
-------------------------|-------------------------|------------------------|
-------------------------|-------------------------|----------------4--3----|
--6--5-----5-----3--5----|--5--5--5----5\----------|-------3--2--L----------|
-------------------------|-------------------0--3--|--1---------------------|


  E  E  Q.      E    E   E      Q     E   E   E   E   Q     
--5--4--L~------------------|------------------------------|
----------------------------|--------------------16--15----|
----------------------------|--------15--14---L------------|
----------------7/--12--15--|--13--------------------------|


                            Verse 2                                                 
   E   E  Q    H            E  E  E  E  E  E  Q       E  E  E  E  E  E  E  E   
--17--16----------------||-------------------------|--------------------------|
------------------------||-------------------------|--------------------------|
------------------------||--5--3-----5--3--3--3----|--3--3--3--3--3--3--------|
------------------------||-------------------------|--------------------3--0--|


  E  E  E  E  H           E  E  E  E  E  E  E  E     E  E  E  E  H         
-----------------------|--------------------------|-----------------------|
-----------------------|--------------------------|-----------------------|
--3--------3-----------|--------------------------|--5--3-----5--3--------|
-----5--------5--------|--5--5--5--5--5--5--3--0--|-----------------------|


  E  E  E  E  E  E  E  E     E  E  E  E  Q    Q        Q    E  E  E  E  E  E   
--------------------------|-------------------------|-------------------------|
--------------------------|-------------------------|--7----5--7--7--7--5-----|
--3--3--3--3--3--3--------|--3--------3-------------|----------------------7--|
--------------------3--0--|-----5--------5----3/----|-------------------------|


  E  E  E  E  H           E  E  E  E  E  E  E  E     E  E  E  E  H         
-----------------------|--------------------------|-----------------------|
-----------------------|--------------------------|-----------------------|
--5--3-----5--3--------|--3--3--3--3--3--3--------|--3--------3-----------|
-----------------------|--------------------3--0--|-----5--------5--------|


  E  E  E  E  E  E  E  E     E  E  E  E  H           E  E  E  E  E  E  E  E   
--------------------------|-----------------------|--------------------------|
--------------------------|-----------------------|--------------------------|
--------------------------|--5--3-----5--3--------|--3--3--3--3--3--3--------|
--5--5--5--5--5--5--3--0--|-----------------------|--------------------3--0--|


                                                     Chorus 2                       
  E  E  E  E  Q    Q         H         Q    Q        E  E  E  E  E  E  E  E   
-------------------------|-----------------------||--------------------------|
-------------------------|-----------------------||--------------------------|
--3--------3-------------|--12\--------7----6----||--6--5-----5-----3--5--5--|
-----5--------5----5/----|-----------------------||--------------------------|


  E  E   Q     Q    Q       E  E  E  E  E  E  Q       E  E   Q     Q    Q     
-------------------------|-------------------------|-------------------------|
-------------------------|-------------------------|-------------------------|
---------------4----3----|--3----------------------|---------------7----6----|
-----0--12\--------------|-----5-----5-----3--5----|-----5--10\--------------|


  E  E  E  E  E  E  Q       E  E   Q     Q    Q       E  E  E  E  E  E  Q     
-------------------------|-------------------------|-------------------------|
-------------------------|-------------------------|-------------------------|
--6--5-----5-----3--5----|---------------4----3----|--3----------------------|
-------------------------|-----0--12\--------------|-----5-----5-----3--5----|


  E  E   Q     Q    Q       E  E  E  E  E  E  Q       E  E  Q    Q     E  E   
-------------------------|-------------------------|-------------------------|
-------------------------|-------------------------|-------------------------|
---------------7----6----|--6--5-----5-----3--5----|--5--5--5----5\----------|
-----5--10\--------------|-------------------------|-------------------0--3--|


  Q    E  E  E  E  Q       E  E  H          E   E   
------------------------|--5--4--L~----------------|
----------------4--3----|--------------------------|
-------3--2--L----------|--------------------------|
--1---------------------|------------------12--15--|


                                                           Bridge                    
   Q     E   E   E   E   Q        E   E  Q    H            H        Q     Q     
------------------------------|--17--16----------------||----------------------|
--------------------16--15----|------------------------||----------------------|
--------15--14---L------------|------------------------||-----------------7----|
--13--------------------------|------------------------||--0--------1/---------|


  Q     Q    E  E  Q       Q    Q        H            E  E  Q      E  E  E  E   
------------------------|--------------------------|---------------------------|
-------------------3----|--------------------------|-------------5g7--5--------|
--------7-------3-------|-------------7g12\--------|--5--7---------------7--7--|
--1/---------1----------|--0----1/-----------------|--------3------------0-----|


  H        Q     Q       Q     Q    E  E  Q       Q    Q        H          
----------------------|------------------------|--------------------------|
----------------------|-------------------3----|--------------------------|
-----------------7----|--------7-------3-------|-------------7g12\--------|
--0--------1/---------|--1/---------1----------|--0----1/-----------------|


   T       T               T     T                                      
   |---3---|   |---3---|                                                
   E   E   E   E   E   E   S  S  S  S  S  S  E     H        Q     Q     
------------------------------------------------|----------------------|
--17p--9--12p--9p--7h--9--14p-9-12p-9p-7h-9p-7--|----------------------|
------------------------------------------------|-----------------7----|
------------------------------------------------|--0--------1/---------|


  Q     Q    E  E  Q       Q    Q        H          
------------------------|--------------------------|
-------------------3----|--------------------------|
--------7-------3-------|-------------7g12\--------|
--1/---------1----------|--0----1/-----------------|


  |----3----|    |----3----|                            
  Q    Q    Q    Q    Q    Q       H        Q     Q     
--7----7------------------------|----------------------|
------------9----7----5---------|----------------------|
---------------------------7----|-----------------7----|
--------------------------------|--0--------1/---------|


  Q     Q    E  E  Q       Q    Q        H          
------------------------|--------------------------|
-------------------3----|--------------------------|
--------7-------3-------|-------------7g12\--------|
--1/---------1----------|--0----1/-----------------|


                                 Guitar Solo                        
                                 >        >        >      
  |----3----|                                            
  Q    Q    Q    E  E  E  E      E  E  E  E  E  E  E  E   
-----------------------------||--------------------------|
--7----6----5----------------||--------------------------|
-----------------7--6--5--0--||--3--3--3--3--3--3--3--3--|
-----------------------------||--------------------------|


     >        >  >  >  >     >        >        >      
  E  E  E  E  E  E  E  E     E  E  E  E  E  E  E  E   
--------------------------|--------------------------|
--------------------------|--------------------------|
--3--3--3--3--3--2--3--4--|--5--5--5--5--5--5--5--5--|
--------------------------|--------------------------|


     >        >  >  >  >                                
  E  E  E  E  E  E  E  E     E  E   E  E  E   E  E  E   
--------------------------|----------------------------|
--------------------------|----------------------------|
--5--5--5--5--5--3--4--5--|--0--0--12--0--0--12--0--0--|
--------------------------|----------------------------|


   E  E  E  E  E     E   Q       E  E   E  E  E   E   E   E   
------------------------------|------------------------------|
------------------------10----|------------------------------|
--12--0--0--0--0--7g12--------|--0--0--12--0--0--12--10--12--|
------------------------------|------------------------------|


                                                  >        >        >      
   |---3---|   |----3---|   |---3---|                                      
   E   E   E   E   E    E   E   E   E   E   E     E  E  E  E  E  E  E  E   
-----------------------------------------------|--------------------------|
--12------10---------------12------10----------|--------------------------|
------12------12--10h--12------12------12--12--|--3--3--3--3--3--3--3--3--|
-----------------------------------------------|--------------------------|


     >        >  >  >  >     >        >        >      
  E  E  E  E  E  E  E  E     E  E  E  E  E  E  Q      
--------------------------|--------------------------|
--------------------------|--------------------------|
--3--3--3--3--3--2--3--4--|--5--5--5--5--5--5--5/----|
--------------------------|--------------------------|


   E   E   E   E   E   E  E  E     Q    E  E  E  E  Q     
--------------------------------|------------------------|
--12--12--12--12--12--12--------|----------------4--3----|
--------------------------------|-------3--2--L----------|
--------------------------0--3--|--1---------------------|


  E  E  Q     Q      E   E      Q     E   E   E   E   Q     
--5--4--L~------------------|------------------------------|
----------------------------|--------------------18--17----|
----------------------------|--------17--16---L------------|
--------------7/----15--17--|--15--------------------------|


                            Verse 3                                                 
   E   E  Q    H            E  E  E  E  E  E  Q       E  E  E  E  E  E  E  E   
--19--18----------------||-------------------------|--------------------------|
------------------------||-------------------------|--------------------------|
------------------------||--5--3-----5--3--3--3----|--3--3--3--3--3--3--------|
------------------------||-------------------------|--------------------3--0--|


  E  E  E  E  E  E  Q       E  E  E  E  E  E  E  E     E  E  E  E  E  E  Q     
-------------------------|--------------------------|-------------------------|
-------------------------|--------------------------|-------------------------|
--3--------3-------------|--------------------------|--5--3-----5--3--3--3----|
-----5--------5--5--L----|--5--5--5--5--5--5--3--0--|-------------------------|


  E  E  E  E  E  E  E  E     E  E  E  E  E  E  E  E   
--------------------------|--------------------------|
--------------------------|--------------------------|
--3--3--3--3--3--3--------|--3--------3--------------|
--------------------3--0--|-----5--------5--5--3--5--|


  E  E  E  E  E  E  E  E     E  E  E  E  H           E  E  E  E  E  E  E  E   
--------------------------|-----------------------|--------------------------|
-----7--5-----------------|-----------------------|--------------------------|
-----------7--6--5--3--0--|--5--3-----5--3--------|--3--3--3--3--3--3--------|
--5-----------------------|-----------------------|--------------------3--0--|


  E  E  E  E  H           E  E  E  E  E  E  E  E     E  E  E  E  H         
-----------------------|--------------------------|-----------------------|
-----------------------|--------------------------|-----------------------|
--3--------3-----------|--------------------------|--5--3-----5--3--------|
-----5--------5--------|--5--5--5--5--5--5--3--0--|-----------------------|


  E  E  E  E  E  E  E  E     E  E  E  E  Q    Q         H         Q    Q     
--------------------------|-------------------------|-----------------------||
--------------------------|-------------------------|-----------------------||
--3--3--3--3--3--3--------|--3--------3-------------|--12\--------7----6----||
--------------------3--0--|-----5--------5----5/----|-----------------------||


  Chorus 3                                                                          
  E  E  E  E  E  E  Q       E  E   Q     Q    Q       E  E  E  E  E  E  Q     
-------------------------|-------------------------|-------------------------|
-------------------------|-------------------------|-------------------------|
--6--5-----5-----3--5----|---------------4----3----|--3----------------------|
-------------------------|-----0--12\--------------|-----5-----5-----3--5----|


  E  E   Q     Q    Q       E  E  E  E  E  E  E  E     E  E   Q     Q    Q     
-------------------------|--------------------------|-------------------------|
-------------------------|--------------------------|-------------------------|
---------------7----6----|--6--5-----5-----3--5--5--|---------------4----3----|
-----5--10\--------------|--------------------------|-----0--12\--------------|


  E  E  E  E  E  E  Q       E  E   Q     Q    Q       E  E  E  E  E  E  Q     
-------------------------|-------------------------|-------------------------|
-------------------------|-------------------------|-------------------------|
--3----------------------|--------------------6----|--6--5-----5-----3--5----|
-----5-----5-----3--5----|-----5--10\----0---------|-------------------------|


  E  E  Q    Q     E  E     Q    E  E  E  E  Q       E  E  Q    Q     E  E   
-------------------------|------------------------|--5--4--L----------------|
-------------------------|----------------4--3----|-------------------------|
--5--5--5----5\----------|-------3--2--L----------|-------------5\----------|
-------------------0--3--|--1---------------------|-------------------0--3--|


  Q    E  E  E  E  Q      
------------------------||
------------------------||
-------3--2--L----------||
--1-------------3--0----||




Duration Legend
---------------
W - whole
H - half
Q - quarter
E - 8th
S - 16th
|-n-|  - n-tuplets


Tablature Legend
----------------
L - tied note
(n) - ghost note
> - accentuded note
h - hammer on
g - grace note
p - pull off
S - shift slide
s - legato slide
/ -  slide into from below or out of upwards
\ -  slide into from above or out of downwards
~ - vibrato
T - tapping


Get my other tabs for Guitar Pro, Powertab, guitar/bass text and chords at
http://profile.ultimate-guitar.com/TexasFury/contributions/

            
            
Suggest correction
Creating personal tab
Creating personal tab
You can edit any tab online and save it as your Personal.

You can edit, replace or remove any tab part or add personal notes – all changes will be seen only by you.

Personal tabs can be accessed anytime from any device, even offline.
Learn more »
Give kudos to tab author, rate the tab!
1 2 3 4 5
comments
print report bad tab
guest
You may want to rate the tab now too:
select rating
Wanna post a correction for this tab? Suggest correction