Oops, an error
Loading. Please wait.

Cant Get This Stuff No More tab

7,174 views 15 this week
1 commentread comment
1 2 3 4 5
x 5
add to favorites
×
Save as Personal and add changes to this tab that will be seen only by you. Learn more ›
×
You can save this tab as Personal to edit and correct it or add notes. All changes will be seen only by you. Learn more »
launch autoscroll
font size
0
reset
how to read this tab
guitar tuner
edit
Autoscroll
slow
fast
+/-
esc
set tempo
stop
Author
#----------------------------------PLEASE NOTE---------------------------------#
#This file is the author's own work and represents their interpretation of the #
#song. You may only use this file for private study, scholarship, or research. #
#------------------------------------------------------------------------------#

CAN'T GET THIS STUFF NO MORE
As recorded by Van Halen
(From the 1996 Album BEST OF, VOLUME 1)
Transcribed by www.mikesguitarsite.co.uk
Words and Music by Edward Van Halen, Alex Van Halen, Michael Anthony & David Lee Roth

Gtr I (D A D G B E) - 'Eddie Van Halen dist electric rhythm/lead'
Gtr II (D A D G B E) - 'Eddie Van Halen dist electric rhythm'

Intro
  Q.=100
 12/8
  Gtr I let ring throughout
    Q    E  E  E  E  E  E  E  E  E  E
|----------------10----------10-------|
|-------------10----10----------10----|
|----------12----------12----------12-|
|-------12----------------12----------|
|-------------------------------------|
|-<12>--------------------------------|


   Q   E  E E E E  E  E E E  E    E  E  +E   E  E  E E  E  E E E  E
|-------------8---------8------|-------------------5---------5------|
|-----------8---8---------8----|---------------(5)---5---------5----|
|--------12-------12--------12-|------------10---------10--------10-|
|-12--12-------------12--------|-12s10-(10)---------------10--------|
|------------------------------|------------------------------------|
|------------------------------|------------------------------------|


   PM|
   E  E E E E  E E E  E Q     E
|---------7------7---------!<12>-|
|-------8---8------8-------!<12>-|
|----10-------10-----10----!<12>-|
|-10-----------------------!<12>-|
|--------------------------!<12>-|
|--------------------------------|


    Q    E E  E  E  E  E  E  E  E  E    +Q    E  E E E E  E  E E E  E
|----------0----10----------10-------|---------------8---------8-------|
|------------------10----------10----|-------------8---8---------8-----|
|------------12-------12----------12-|-(12)-----12-------12--------12--|
|-------12---------------12----------|-------12-------------12---------|
|------------------------------------|---------------------------------|
|-<10>-------------------------------|---------------------------------|


                                      PM---|   PM|       ~~
   E  E  E  E  E  E E  E  E E E  E    E  E E e E  E E E  E  +E   E   E
|-----------------5---------5------|---------7------7--------------!10-|
|-------------(5)---5---------5----|-------8---8------8------------!10-|
|----------10---------10--------10-|----10-------10-----10-(10)s12-!12-|
|-12s10-10---------------10--------|-10----------------------------!12-|
|----------------------------------|-----------------------------------|
|----------------------------------|-----------------------------------|


  Q   E  E  E  E  E  E  E  E  E  E
|-------------10----------10--------|
|----------10----10----------10-----|
|-------12----------12----------12--|
|----12----------------12-----------|
|-0---------------------------------|
|-0---------------------------------|


   E   E   E E E E E  E  E E E  E
|----------------8---------8------|
|------------8-8---8---------8----|
|----(12)------------12--------12-|
|-12------12------------12--------|
|---------------------------------|
|---------------------------------|


            PM|                     PM|
   E  E  E  E E E E  E  E E E  E    E  E E E E  E E E  E E E E
|---------------5---------5------|---------7------7-------------|
|-------------5---5---------5----|-------8---8------8-----------|
|----------10-------10--------10-|----10-------10-----10--------|
|-12s10-10-------------10--------|-10---------------------------|
|--------------------------------|------------------------------|
|--------------------------------|-------------------------0-0--|


    Q    E  E   E   E  E  E  E  E  E  E
|------------------10----------10-------|
|---------------------10----------10----|
|----------12------------12----------12-|
|-------12----(12)----------12----------|
|---------------------------------------|
|-<12>----------------------------------|


   PM-----------|   PM---|                                       PM
   E  E   E   E E E E  E  E E E  E    E  E  E  E E E +E   E  E E E  E
|-----------------8---------8------|---------------5-(5)-------5-------|
|---------------8---8---------8----|-------------5---------------5-----|
|----12------12-------12--------12-|----------10---------10--------10--|
|-12----(12)-------------12--------|-12s10-10---------------10---------|
|----------------------------------|-----------------------------------|
|----------------------------------|-----------------------------------|


   PM   PM    PM   PM    PM
   E E  E  E  E E  E  E  E  E  E  E
|----7----------7-----------7--7--7-||
|----8-----8----8-----8-----8--8--8-||
|---------10---------10----10-10-10-||
|-10---10----10---10----10----------||
|-----------------------------------||
|-----------------------------------||


             PM--|   PM|     PM|   PM
  Q  E E E E E E E E E E   E E E E E E +Q   E E E E
|----2-2s4-4-------4-----|-4-----5---2-(2)--0-0-0-2-|
|----3-3s5-5-------5-----|-5-----5---3-(3)--3-3-3-3-|
|----2-2s4-4-------4-----|-4-----4---2-(2)--2-2-2-2-|
|----0-------------------|---------0----------0---0-|
|-0------------------0-0-|---0-0---0--------------0-|
|-0----------0-0-0-----0-|---0-0--------------------|


               PM--|   PM|
  +Q   E E E E E E E E E E
|-(2)--2-2s4-4-------4-----|
|-(3)--3-3s5-5-------5-----|
|-(2)--2-2s4-4-------4-----|
|-(0)----------------------|
|-(0)------------------0---|
|--------------0-0-0-----0-|


    PM|   PM                               PM--|   PM|
  E E E E E E +E  E E E E E   +Q   E E E E E E E E E E
|-4-----5---2-(2)-0-0-0-0-2-|-(2)--2-2s4-4-------4-----|
|-5-----5---3-(3)-3-3-3-3-3-|-(3)--3-3s5-5-------5-----|
|-4-----4---2-(2)-2-2-2-2-2-|-(2)--2-2s4-4-------4-----|
|---0-0-----0-(0)-0-0-----0-|-(0)----------------------|
|---0-0---0---------------0-|-(0)----------0-------0---|
|-------------------------0-|-(0)----------0-0-0-----0-|


    PM|   PM                              PM--|
  E E E E E E +Q   E E E E   +Q   E E E E E E E E E E   +W.
|-4-----5---2-(2)--0-0-0-2-|-(2)--2-2s4-4-------4---5-|-(5)----||
|-5-----5---3-(3)--3-3-3-3-|-(3)--3-3s5-5-------5---5-|-(5)----||
|-4-----4---2-(2)--2-2-2-2-|-(2)--2-2s4-4-------4---2-|-(2)----||
|---------0-0-(0)----0---0-|-(0)------------------0-2-|-(2)----||
|---0-----0--------------0-|-(0)----------0---------0-|-(0)----||
|-----0--------------------|----------------0-0-------|--------||


   Verses
    $
               PM--|         ~
    Q  E E E E E E E a E E a E
||-----------------------------|
||o----3-3s5-5-------3h5p3-5s7-|
||-----3-3s5-5---------5---5s7-|
||-----------------------------|
||o------------0---------------|
||--0------------0-0-----------|


            PM|                           ~
   Q.    E  e  e E E E  Q   E   E E E E E E +Q.   E E E
|------------------8----------|-------------------------|
|-(7)------------8---8--------|-----3-3s5-5-(5)---3-x-x-|
|-(7)s==11----11-------11--12-|-----3-3s5-5-(5)---5-x-x-|
|----------12-----------------|-------------------------|
|-----------------------------|-------------------------|
|-----------------------------|-0-0---------------------|


  ~~                                  PM--|       ~
  Q.   E e E Q.   Q  E   +Q   E E E E E E E E E a E
|----------------------|----------------------------|
|-5----3-5-x-3----3----|------3-3s5-5-------5p3-5h7-|
|-5----5-5-x-5----4----|------3-3s5-5-------5---5h7-|
|----------------------|----------------------------|
|--------------------0-|-(0)----------0-------------|
|--------------------0-|-(0)------------0-0---------|


            PM|
  +Q.    E  e  e E E E  Q   E
|------------------8------------|
|-(7)------------8---8----------|
|-(7)s==11----11-------11-------|
|----------12--------------12---|
|-------------------------------|
|-------------------------------|


                            1.
  PM|                    ~~~~~~~~
  E E E E E +E  Q.   E E E   +Q.   Q.   E E E E E E
|--------------------------|-------------------------||
|-----3-3s5-(5)-5----5s3-2-|-(2)---2------2---2-2---o||
|-----3-3s5-(5)-5----5s3-2-|-(2)---2------2---2-2-2--||
|------------------------2-|-(2)---2------2---2-2-2--||
|------------------------0-|-(0)---0----0---0-0-0-0-o||
|-0-0----------------------|-------------------------||


  2.,D.S.
   ~~~
  +Q.   E Q    E E E E E E
|---------------------------||
|-------2------2-2-2-2-2-2--||
|-(2)---2------2-2-2-2-2-2--||
|-(2)---2------2-2-2-2-2-2--||
|-(0)---0------0-0-0-0-0-0--||
|---------5b7---------------||


 Chorus
  $$
  Gtr I
             PM---|              PM|   PM| ~~
  Q   E Q  E E  E E   Q  E    E  E E E E E Q.   E E E
|--------------------------|--------------------------|
|-------1--1---------------|--------------------------|
|-------0--0----------5----|---------5----------------|
|-------3--3----------5----|---------5-----7----------|
|--------------------------|---------------7----------|
|-3---3------5--5-5------5s|==7--7-7---7-7------7-6-5-|
|
| Gtr II
| Q.    Q  E Q.     a Q  E   +W.
|-1------------------------|--------------------------|
|-------1--1---------------|--------------------------|
|------------0------2s5s=2-|-(2)----------------------|
|--------------------------|--------------------------|
|--------------------------|--------------------------|
|--------------------------|--------------------------|


             PM---|
  Q   E Q  E E  E E Q    E
|----------------------------||
|-------1--1-----------------||
|-------0--0--------5--------||
|-------3--3--------5--------||
|----------------------------||
|-3---3------5--5-5------5s==||
|
| Q.    Q  E Q.     Q  a E
|-1----------------------0---||
|-------1--1--------1--1s5---||
|------------0---------------||
|----------------------------||
|----------------------------||
|----------------------------||


                                                     To Coda
                                              To Double Coda
   PM---|     ~~~~~~                     PM---|
   E  E E E E E +Q.   E E E   Q   E Q  E E  E E   Q  E
|---------------------------|---------------------------|
|-------------5-(5)-------5-|-------1--1----------------|
|---------7---5-(5)---7---5-|-------0--0----------5-----|
|---------7-7-5-(5)---7-5-5-|-------3--3----------5-----|
|---------------------------|---------------------------|
|--7--7-7-------------------|-3---3------5--5-5------5s=|
|
| +W.                         Q.    Q  E Q.     a Q  E
|-(0)-----------------------|-1-------------------------|
|-(5)-----------------------|-------1--1----------------|
|---------------------------|------------0------2s5s=2--|
|---------------------------|---------------------------|
|---------------------------|---------------------------|
|---------------------------|---------------------------|


      PM|
   E  E E E E E E E E E E E
|----------------------------|
|---------5-------5---5-5----|
|---------5-------5---5-5----|
|---------5-------5---5-5----|
|-------------7-7---7-----7\-|
|--7--7-7---7---7---7--------|
|
| +W.
|----------------------------|
|----------------------------|
|-(2)------------------------|
|----------------------------|
|----------------------------|
|----------------------------|


                                                       D.S. al Coda
  Q   E Q.    E q  E E E    Q   E  E E E +Q.   E E E      take 2nd ending of repeat
|------------------------|-------------0-(0)---0-0-0--||   on D.S.
|-------1----------------|-----------0---------0-0-0--||
|-------0-------5--------|--1---1-^2-----------2-2-2--||
|---------------5--------|--2-----^2-----------2-2-2--||
|------------------------|----------------------------||
|-3---3-------5-5--5s3-2-|--2-------------------------||
|
| Q.    E E H      Q   E   +W.
|-1-----3s5-3------1---0-|-(0)------------------------||
|------------------------|----------------------------||
|------------------------|----------------------------||
|------------------------|----------------------------||
|------------------------|----------------------------||
|------------------------|----------------------------||


  &
      PM|   PM|     PM
   E  E E E E E E E E E E E
|---------------------------|
|---------5-----5-5---------|
|---------5-----5-5---------|
|---------5-----5-5---------|
|-----------7---------------|
|--7--7-7-----7-----7-7-6-5-|
|
|  W.
|---------------------------|
|-(2)-----------------------|
|---------------------------|
|---------------------------|
|---------------------------|
|---------------------------|


  Q   E   Q  E Q.   E E    E     Q   E E E E H.
|----------------------------|-------0-----0-0-----||
|----------------------------|-------0---0---0-----||
|---------5----5-------------|---------2-----4-----||
|-3-------5----5-------------|---------------------||
|----------------------------|---------------------||
|-3---3------5-5----5s3----0h|===2-----------------||
|
| Q.    a Q  H      Q   a  E    +W.
|-1-----3s5--3------8---8s12-|-(12)----------------||
|----------------------------|---------------------||
|----------------------------|---------------------||
|----------------------------|---------------------||
|----------------------------|---------------------||
|----------------------------|---------------------||


 Guitar Solo
           \1/     \1/             \1/    \1/
   Q.     +Q      +E    +Q.       +Q     +E
|---------------------------------------------|
|---------------------------------------------|
|-<7>----(<7>)---(<7>)-(<7>)-----(<7>)--(<7>)-|
|---------------------------------------------|
|---------------------------------------------|
|---------------------------------------------|
|
|  PM------------------------------------------
|  Q   E   E   E   E     E   E E   Q      E
|---------------------------------------------|
|---------------------------------------------|
|---------------------------------------------|
|---------------------------------------------|
|--0---0-------0---0---------0-----0------0---|
|--0---0-------0---0---------0-----0------0---|


             \1/     \1/   \7
                                                      ~~~~~~
   +Q.      +Q      +E    +H.             Q   a E E E E +Q    E E E E
|---------------------------------------|--------------------------------|
|---------------------------------------|--------------------------------|
|-(<7>)----(<7>)---(<7>)-(<7>)----------|---------5---5-(5)-----5---5b7==|
|---------------------------------------|-----5s7---7---------7---7------|
|---------------------------------------|--------------------------------|
|---------------------------------------|--------------------------------|
|
|-------------------------------------|
|   Q    E   E   E   E     E   E E Q  E   W.
|---------------------------------------|--------------------------------|
|---------------------------------------|--------------------------------|
|---------------------------------------|-5------------------------------|
|---------------------------------------|-5------------------------------|
|---0----0-------0---0---------0---0--0-|-3------------------------------|
|---0----0-------0---0---------0---0--0-|-------0---0-0-----0---0---0----|
                                          Q     E E E E  E  E E Q   E


   \4.5___________\full
                                             ~~~~~~
  +H.            +Q.     Q.      q   a E E E E +E  E E E E E
|------------------------------|-----------------------------|
|------------------------------|-x---------------------------|
|-(7)------------(7)-----------|-x-------5---7-(7)-5-7-------|
|------------------------------|-x---5s7---7-------------7-3-|
|------------------------------|-----------------------------|
|------------------------------|-----------------------------|
|
|            PM|     PM|    PM         PM------------------|
|  Q     E E E E  E  E E E  Q    W.
|------------------------------|-----------------------------|
|------------------------------|-----------------------------|
|--7-----7---------------------|-----------------------------|
|--7-----7---------------------|-3---------------------------|
|--5-----5---0-0-----0-0----0--|-3---------------------------|
|------------0-0-----0-0----0--|-------0---0-0-----0---0---0-|
                                 Q     E E E E  E  E E Q   E


   \0.5                      \1/
                             ~~~~
  +H.                    +E +Q     Q       E
|----------------------------------------------|
|------------------------------------------x/--|
|------------------------------------------x/--|
|-(3)--------------------(3)(3)------------x/--|
|----------------------------------------------|
|----------------------------------------------|
|
|        PM
|  Q     E E E a    +E    Q      E E E     E
|----------------------------------------------|
|----------------------------------------------|
|----------------------------------------------|
|--5----------------------3--------0-------0---|
|--5---------0-3b4==(4)r--3p=====0-------------|
|--------0---------------------------3b3.5-----|


                     ~~~~~~~
  E  a E S  S  E  E  E  +Q.      E  E  E
|--------------------------------------------|
|--------------------------------------------|
|------5------10----10-(10)------------------|
|----x---7s12----12-------------12-10-12b15==|
|--------------------------------------------|
|--------------------------------------------|
|
|        PM---------------------------|
| W.
|--------------------------------------------|
|--------------------------------------------|
|-0------------------------------------------|
|-3------------------------------------------|
|-3------------------------------------------|
|--------0--------0--0------0----0-----0-----|
  Q      E     E  E  E   E  E E  Q     E


                      ~~~~~~~~                       ~           ~
   +Q.     +E   +E   +E   +Q.     E E E   E  E E E E E +E   Q    Q   E
|---------------------------------------|--------------------------------|
|---------------------------------x---x-|--------------------------------|
|---------------------------------x---x-|---------------------------[5]--|
|-(15)----(15)-(15)r(12)-(12)-----x---x-|-x----------3-(3)-[5]---7-------|
|---------------------------------------|-x--3p0-5-x---------------------|
|---------------------------------------|--------------------------------|
|
|                PM-|         PM|   PM         PM-------------------|
|   Q   E   E    E    E    E  E E E Q     W.
|---------------------------------------|--------------------------------|
|---------------------------------------|--------------------------------|
|---7---7-------------------------------|--------------------------------|
|---7---7-------------------------------|-3------------------------------|
|---5---5--------0----0-------0-0---0---|-3------------------------------|
|----------------0----0-------0-0---0---|------0---0-0------0----0---0---|
                                          Q    E E E E  E   E  E Q   E


  +E  E S S  a      +E   +E   a      +E    E  a      +E      E  Q    +E
|-------------------------------------------------------------------------|
|-------------------------------------------------------------------------|
|-(5)-7-x-x-12b14==(14)r(12)-10b11==(11)r-12-12b13==(13)r---10-10---(10)/-|
|-------x-x---------------------------------------------------------------|
|-------------------------------------------------------------------------|
|-------------------------------------------------------------------------|
|
|  E  E E    a       E    E           E    E          E      E  E E   E
|-------------------------------------------------------------------------|
|-------------------------------------------------------------------------|
|--0--0-x-----------------------------------------------------------------|
|--0--0-x----------------------------------0--------------------5---------|
|------------0h======3p===0-----------3-------------------------5p0-------|
|-----------------------------------------------------3b3.5p=0--------0---|


                               ~~~~~                  ~~~~~
                                                      |-3--|
  Q    a      +E       +Q     +E    Q    a      +E   +E    S  a      +Q
|----------------------------------15---------------------15---------------|
|-----18b19==(19)b20==(20)---(20)r------18b20==(20)-(20)r----18b22==(22)---|
|--------------------------------------------------------------------------|
|--------------------------------------------------------------------------|
|--------------------------------------------------------------------------|
|--------------------------------------------------------------------------|
|
| H.                                E E          E    E               E  E
|--------------------------------------------------------------------------|
|-6-----------------------------------6---------------6------------------6-|
|-7-----------------------------------7---------------7------------------7-|
|-8------------------------------------------------------------------------|
|--------------------------------------------------------------------------|
|--------------0-----------0---0----0------------0--------------------0----|
  Q            E        E  E   E    E E          E    E               E  E


                            \0.5/
                                      ~~~
                                                      |--3--|
   +E.  S  S  S  E.   S  E  E      S  E.    +E     E  S  S  S
|-------------------------------------------------------------|
|-(18)r18p15----18p==17p15h17h====18p15----(15)\-----10h12h13-|
|------------17----------------------------------/11----------|
|-------------------------------------------------------------|
|-------------------------------------------------------------|
|-------------------------------------------------------------|
|
|          PM----------------------------------------|
|   W.
|-------------------------------------------------------------|
|---8---------------------------------------------------------|
|---9---------------------------------------------------------|
|--10---------------------------------------------------------|
|-------------------------------------------------------------|
|----------0-------0-----0---------0---------0--------0-------|
    Q      E     E E     E  E      E     E   Q        E


                                                                                  \0.5/
         |------5------|  |---------7---------|
   S  S  S  S  S    S  S  S  S  S  S    S  S  S  S  S  S  S  S  S  S  S  S  E. S  S
|-10h12h13p10h13p==12p10-10------------------10h13p12p10----10---------------------------|
|---------------------------13p12p10h==12h13-------------13----13p12p10-10---------------|
|--------------------------------------------------------------------------12p10h12b14===|
|----------------------------------------------------------------------------------------|
|----------------------------------------------------------------------------------------|
|----------------------------------------------------------------------------------------|
|
|                PM-----------------------------------------------------------|
|  W.
|----------------------------------------------------------------------------------------|
|--6-------------------------------------------------------------------------------------|
|--7-------------------------------------------------------------------------------------|
|--8-------------------------------------------------------------------------------------|
|----------------------------------------------------------------------------------------|
|----------------0-------------------0-----------0-----------0-----------0-----0---------|
   Q             E        E          E           E     E     E     E     Q     E


                \0.5/
                                            ~~
                                                           |-----3------|  |---3---|
   +E   +S   S  S      +S   +S   +S   S  S  E  +E  E   E   S      +S    S  E  E    E
|----------------------------------------------------------------------10-10-10---10-|
|---------------------------------------------------------13b15==(15)r---------------|
|-(14)r(12)p10h12b14==(14)-(14)r(12)p10h12p10-(10)s8s(11)----------------------------|
|------------------------------------------------------------------------------------|
|------------------------------------------------------------------------------------|
|------------------------------------------------------------------------------------|
|
|               PM
|   Q           E            E        E     E   E  E   E   E               E    E
|------------------------------------------------------------------------------------|
|---6---------------------------------6-----6--(6)-6---6--(6)--------------6----6----|
|---7---------------------------------7-----7--(7)-7---7--(7)--------------7----7----|
|---7----------------------------------------------7---7--(7)--------------7----7----|
|------------------------------------------------------------------------------------|
|---------------0-------------------------------0----------0-------------------------|


   TP   TP    TP    TP TP TP TP TP
   |----3-----|
   Q.   Q.    Q.    E  E  E  E  Q
|-10---12----13----15-12-13-15-17---|
|-----------------------------------|
|-----------------------------------|
|-----------------------------------|
|-----------------------------------|
|-----------------------------------|
|
|       PM------------------------|
|  W.
|-----------------------------------|
|-/6--------------------------------|
|-/7--------------------------------|
|-/8--------------------------------|
|-----------------------------------|
|-------0-----0--0-----0-----0----0-|
   Q    E  E  E  E  E  E  E  Q    E


      TP                    TP      TP  TP TP
   a  H.            a      +Q.      E   E  E
|-17s20------------20b22==(22)-----20r-17-20-|
|--------------------------------------------|
|--------------------------------------------|
|--------------------------------------------|
|--------------------------------------------|
|--------------------------------------------|
|
|     Q    E E E E          Q    E  E   E  E
|--------------------------------------------|
|-----8----8----------------8----8-----------|
|-----9----9----------------9----9-----------|
|----10---10---------------10---10-----------|
|--------------------------------------------|
|--------------0-0----------------------0--0-|


           TP               TP TP         TP               TP
   a      +Q    E  +S    S  E  E  a      +Q.       a      +Q.
|-20b22==(22)--22-(22)r-17-17-20-20b22==(22)r-----20b22==(22)b24====|
|-------------------------------------------------------------------|
|-------------------------------------------------------------------|
|-------------------------------------------------------------------|
|-------------------------------------------------------------------|

|-------------------------------------------------------------------|
|
|          Q    E   E       E  E          Q     E          Q.
|-------------------------------------------------------------------|
|---------11---11------------------------11----11-------------------|
|---------12---12------------------------12----12-------------------|
|---------13---13------------------------13----13-------------------|
|-------------------------------------------------------------------|
|---------------------------0--0--------------------------13\-------|


                                            D.S.S. al Dbl. Coda
                           ~~~~~~~~
   +E   E  E  E       E    E  +H.
|-(24)-24-24-24------24---24-(24)r-----------||
|--------------------------------------------||
|--------------------------------------------||
|--------------------------------------------||
|--------------------------------------------||
|--------------------------------------------||
|
|   E   E  E  E a    +E    E   Q.     Q.
|--------------------------------------------||
|---2---2--2--2------------2---2-------------||
|---2---2--2--2------------2---2-------------||
|---2---2--2--2------------2---2-------------||
|---0---0--0--0------------0---0-------------||
|---------------5b7==(7)r------------12\-----||


  &&
      PM|          PM
   E  E E   E   E  E  E  E  E   E  E E
|--------------------------------------|
|-----------5---------5--5-------------|
|-----------5---------5--5-------------|
|-----------5---------5--5-------------|
|---------------7----------------------|
|--7--7-7----------7--------7---7--6-5-|
|
|  Q.      +E   E  E  E  E  E  +Q.
|--------------------------------------|
|-10------(10)-10s12-13s12-10-(10)-----|
|--------------------------------------|
|--7-------(7)--7s=9-10s=9--7--(7)-----|
|--------------------------------------|
|--------------------------------------|


              PM--|                PM   PM  PM  PM  PM
  Q.     Q  E E E E E E    S S     E  E E E E E E E E a    +E   S S E
|------------------------------|---------------------------------------|
|--------1---------------------|------5-------5---5--------------------|
|--------0----------5-5--------|------5-------5---5---7b9==(9)r-7p5----|
|--------3----------5-5--------|------------------------------------7--|
|------------------------------|----------7----------------------------|
|-3---------5-5-5-5--------5s6-|---7----7---7---7---7------------------|
|
| Q.   a Q  H       Q   a  E      +W.
|-1----3s5--3-------8---8s12---|-(12)----------------------------------|
|------------------------------|---------------------------------------|
|------------------------------|---------------------------------------|
|------------------------------|---------------------------------------|
|------------------------------|---------------------------------------|
|------------------------------|---------------------------------------|


            PM--|
  Q.   Q  E E E E Q  S S
|------------------------|
|------1-----------------|
|------0----------5------|
|-3----3----------5------|
|------------------------|
|-3-------5-5-5-5----5s6-|
|
| W
|------------------------|
|------------------------|
|------------------------|
|------------------------|
|------------------------|
|------------------------|


      PM|       PM|                                PM--|
   E  E E   E   E  E  E  E  E   E  E E   Q.   Q  E E E E Q  S S
|--------------------------------------|-------------------------|
|-----------5---------5--5-------------|------1------------------|
|-----------5---------5--5-------------|------0----------5-------|
|---------------------5--5-------------|-3----3----------5-------|
|--------------------------------------|-------------------------|
|--7--7-7-------7--7--------7---7--6-5-|-3-------5-5-5-5----5s6--|
|
|  Q.      +E   E  E  E  E  E  +Q.       W
|--------------------------------------|-------------------------|
|-10------(10)-10s12-13s12-10-(10)-----|-------------------------|
|--------------------------------------|-------------------------|
|--7-------(7)--7s=9-10s=9--7--(7)-----|-------------------------|
|--------------------------------------|-------------------------|
|--------------------------------------|-------------------------|


      ~~~~~~~~~~~~~~                  PM--|            PM|    ~~~~~~
  E E E E E E E E E E E E   Q.   Q  E E E E Q  S S   E E E Q  E +Q.   E E E
|-------------------------|------------------------|------------------------|
|-------------------------|------1-----------------|------------------5-5-5-|
|-------------------------|------0----------5------|-------7--5-(5)---5-5-5-|
|-------------------------|-3----3--x-------5------|-------7--5-(5)---5-5-5-|
|-------------------------|---------x--------------|------------------------|
|-7-7-7-7-7-7-7-7-7-7-6-5-|-3---------5-5-5----5s6-|-7-7-7------------------|


  Q  E E E E Q  E E E  E         Q    E E  S S E  Q.   +Q      E
|------------------------|--------------0--0-0-0-(0)---(0)--------||
|------1---1----3-3-3\---|--------------0--0-0-0-(0)---(0)--------||
|------2p0-0-5--5-5-5\---|--------------2--2-2-2s=4----(4)--------||
|------3-----5--5-5-5\---|------------2---------------------------||
|------------------------|----------------------------------------||
|-3--3-------5----5-5\-0h|=======2----------------------------(2)-||
|
| Gtr II
| W                        a    +Q    E Q.        Q.    Q.
|------------------------|--------------0---------0---------------||
|------------------------|------------0-----------0---------------||
|------------------------|-7b9==(9)r--------------------7pb9r=====||
|------------------------|----------------------------------------||
|------------------------|----------------------------------------||
|------------------------|----------------------------------------||


 Outro
   Q     E   E  E  E  E  E  E  E  E  E
|-----------------10----------10--------|
|--------------10----10----------10-----|
|-----------12----------12----------12--|
|------(12)----------------12-----------|
|---------------------------------------|
|---------------------------------------|
|
| +W.
|---------------------------------------|
|---------------------------------------|
|-(7)-----------------------------------|
|---------------------------------------|
|---------------------------------------|
|---------------------------------------|


   Q   E E E E E E  E E E E    E  E  E  E E E E  E  E E E  E
|------------8--------8-----|---------------5---------5------|
|--------8-8---8-8------8-8-|-------------5---5---------5----|
|---------------------------|----------10-------10--------10-|
|-10--12-----------12-------|-12s10-10-------------10--------|
|---------------------------|--------------------------------|
|---------------------------|--------------------------------|


   PM---------|
   E  E E E E  E E E  E  +E  E E
|---------7------7----------------|
|-------8---8------8--------------|
|----10-------10-----10-(10)------|
|-10------------------------------|
|----------------------------0-0--|
|----------------------------0-0--|


    Q     E   E  E  E  E  E  E  E  E  E
|------------------10----------10-------|
|---------------10----10----------10----|
|------------12----------12----------12-|
|-------(12)----------------12----------|
|-<12>----------------------------------|
|-<12>----------------------------------|


         PM          PM|                  PM---|      PM|
   E  E  E  E E E E  E  E E E  E    E  E  E  E E E E  E  E E E  E
|---------------8---------8------|---------------5---------5-------|
|-------------8---8---------8----|-------------5---5---------5-----|
|----12----12-------12--------12-|----------10-------10--------10--|
|-12-12-12-------------12--------|-12s10-10-------------10---------|
|--------------------------------|---------------------------------|
|--------------------------------|---------------------------------|


   PM
   E  E E E E  E E E  E  +E   E E
|---------7------7----------------|
|-------8---8------8--------------|
|----10-------10-----10-(10)\-----|
|-10------------------------------|
|---------------------------------|
|-----------------------------0-2-|


               PM|              PM--|
  Q  E E  E  E E Q  E E E   E E E E E  E  E E E  E  E E
|-------------------------|------------------------------|
|-------------------------|-0----------------------------|
|----0----------------2---|---2-------(2)-0--------------|
|------------0------0---0-|---------------------(0)------|
|--------(0)--------------|-------------------------3-2--|
|-3----2--0----3-2--------|-----0-2-3-------2-0-----3-2--|


  +E  E E  E  E E E E  E  +Q   E
|-------------0-0----------------|
|-----0-------3-3-3--------------|
|-----2-------2-2---0-(0)-(0)----|
|--------------------------------|
|-(2)-----(2)--------------------|
|-(2)-----(2)-----0-2--3--(3)--2-|


  E E E Q  E E E E E E E   Q  E E E E E Q  q  E
|------------------------|-----------------0-----|
|------------3---0-------|-----------------3-----|
|------------2-----2-----|-----------------2-----|
|---0------0---0---------|----0-----0------------|
|------------------------|-3---------------------|
|-0---3-2------------0-2-|-3----2-0---3-2-----2--|


  E E E E  Q   +E  E E  E  E E
|-0-0--------------------------|
|-3-3--------------------------|
|-2-2-----(2)--(2)-------------|
|-----------------------0------|
|------------------------------|
|-----0-2--3---(3)-2-0-(0)-3-2-|


  +E  E E E E E E E E +E  E E   E E E Q  E E E Q     E E
|-----------0-0---------------|---------------------------|
|-----3-----3-3---------------|---------------------------|
|-----2-----2-2p0-------------|------------2--------------|
|-------------------------0-2-|---0------0-----0tr2-------|
|-----------------------------|-----0--------0------------|
|-(2)-----2-----0-2-3-(3)-----|-0-----2--------------0-2--|


    PM                         PM--|    PM
  E e E E E E E Q  E E E   E E E E Q  E E E E E E
|------------------------|-0----------------------|
|--------------------0---|---0--------------------|
|-----0----------------2-|------------------0-----|
|-----0-----0------0-----|------------0-----------|
|---3--------------------|------------------------|
|-3-----2-0---3-2--------|-----0-2-3----2-0---3-2-|


   E  E E  E  E E E E E +E  E E
|-------0-----0-0----------------|
|-------3-----3-3----------------|
|--2----2-----2-2p0---------0----|
|-----x--------------------------|
|--------------------------------|
|-(2)-----(2)-----0-2-3-(3)---2--|


                                 PM------|      PM|
  E E E Q  E E E E E E E   E  E  E E E E E Q  E E E   E E E E E E E E E E E E
|----------0-----0-0-----|--------------------0-----|-0-0----------------------|
|----------3-----3-3-----|--------------------3-----|-3-3----------------------|
|----------2-----2-2-----|--------------------2-----|-2-2-------x--------------|
|---0--------------------|-------0-2-0-0------------|-------------0-----0------|
|------------------------|---(2)--------------------|--------------------------|
|-0---3-2------2-----0-2-|-3-------------3-2----2-2-|-----0-2-3-----2-0---3-2--|


      PM----|           PM
  +E  E E E E E E E  E  E E E
|-----------0-----------------|
|---------0---0---------------|
|-------2-----------(2)---0---|
|-----0-----------------------|
|-----------------------3-----|
|-(2)-----------0-2--3------2-|


         PM--------------------------------------|
  E E E  Q   E E E E E E E   E E E E E E E E e E E E
|--------------------------|--------------------------|
|------------------0-------|-----------------------0--|
|--------------2-----2-----|-----0-----0-------2------|
|---0--------0---0---------|---------------------0----|
|-------(2)----------------|---3-------------2--------|
|-0---3--2-------------0-2-|-3-----2-0---3-2----------|


                                   PM
  E E E E Q  E E E E E E   +E  E E E E E E E E E E E
|---0--------------------|-----0-----0-0-------------|
|------------------------|-----3-----3-3-------------|
|-2----------0-----0-----|-----2-----2-2-------------|
|------------------------|-----------------------0---|
|------------------------|---------------------------|
|-----0-2-3----2-0---3-2-|-(2)-----2-----0-2-3-3---2-|


                                                         PM-----------|
  E E E Q  E E E E E E E   Q.   E E E E Q  +E  E E   E e E E Q  E E E +E  E E
|----------------0-------|-------------------------|---------------------------|
|--------------0---0-----|---------------------3---|---------------------------|
|------------2-----------|----------0----------2---|-2-2-----------------------|
|---0-3----0-------------|---------------------0---|-0-0--------0--------------|
|------------------------|-------------------------|---------------------------|
|-0-----2------------0-2-|-3----2-0---3-2--(2)---2-|-----0-2-3----2-0-(0)-3-2--|


  +E  E E E E E E E E +E  E E
|-----0-----0-2---------------|
|-----3-----3-3---------------|
|-----2-----2-2-----------0---|
|---------------------------2-|
|-----------------------------|
|-(2)-----2-----0-2-3-(3)-----|


  E E E Q  E E E E E E E   Q  E E E E E E  E  E E E
|----------0---0-0-0-----|---------------------------*|
|----------3---3-3-3-----|---------------------------*|
|----------2---2-2-2-----|----2-----------------2----*|
|---0--------------------|----------3---------0---0--*|
|------------------------|----------------(0)--------*|
|-0---3-2------------0-2-|-3----2-0---3-2------------*|
Suggest correction
Creating personal tab
Creating personal tab
You can edit any tab online and save it as your Personal.

You can edit, replace or remove any tab part or add personal notes – all changes will be seen only by you.

Personal tabs can be accessed anytime from any device, even offline.
Learn more »
comments
print report bad tab
1 comment total.
0 reply
CinderellaFan14 251 Feb 15, 2012 11:52 AM

Good luck getting this tab right on the first time! HOLY ****! :D Excellent song by Van Halen with DLR, as awesome as their new album! Thanks!

guest
You may want to rate the tab now too:
select rating
Wanna post a correction for this tab? Suggest correction