Oops, an error
Loading. Please wait.

Cant Stop Loving You Bass Tab

version 1
version 1

Whole song

Interactive

9,889 views 9 this week
no commentswrite comment
1 2 3 4 5
excellent!
x 3
add to favorites
launch autoscroll
font size
0
reset
guitar tuner
Tab Pro tools
  • play this tab
  • loop segment
  • change instrument
  • show fretboard
  • metronome
×
Best way to learn
"Cant Stop Loving You"
Autoscroll
slow
fast
+/-
esc
set tempo
stop
Contributor
Can´t Stop Loving You
Van Halen
Balance 
1995

Standard Tuning (EADG)

Intro:
G----------------------------------------------------------------|
D----------------------------------------------------------------|
A-----------------------------------55555555-77777777------------|
E-5555555555555555-2222222222222222-------------------555555555~-|

Verse: (Theres A Time and place for...)

G-----------------------------------------------------|
D-----------------------------------------------------|
A-----------------------------------55555555-77777777-|
E-5555555555555555-2222222222222222-------------------|

G----------------------------------------------------------------------|
D----------------------------------------------------------------------|
A-----------------------------------55555555-77777777------------------|
E-5555555555555555-2222222222222222-------------------2222222222222222-|

Pre Chorus: (I Wanna hold you and say...)

G------------------------------------------------------------------------------|
D------------------------------------------------------------------------------|
A-555555555555-444-2222222222222222--------------------------------------------|
E-----------------------------------3333333333333333-00000000-1212121212121212-|

Chorus:
G----------------------------------------------------------------|
D----------------------------------------------------------------|
A-----------------------------------55555555-77777777------------|
E-5555555555555555-2222222222222222-------------------555555555~-|

Verse 2: (You can change your friends, your place in life...)
G-----------------------------------------------------|
D-----------------------------------------------------|
A-----------------------------------55555555-77777777-|
E-5555555555555555-2222222222222222-------------------|

G----------------------------------------------------------------------|
D----------------------------------------------------------------------|
A-----------------------------------55555555-77777777------------------|
E-5555555555555555-2222222222222222-------------------2222222222222222-|
Pre Chorus 2: (Hold On, I'm Holdin on...)
G------------------------------------------------------------------------------|
D------------------------------------------------------------------------------|
A-3333333333333333-------------------------------------------------------------|
E------------------5555555555555555-1111111111111111-00000000-1212121212121212-|

Chorus:
G----------------------------------------------------------------|
D----------------------------------------------------------------|
A-----------------------------------55555555-77777777------------|
E-5555555555555555-2222222222222222-------------------555555555~-|

Bridge: (Oh i'm so twisted and tied...)
G---------------------------------------|
D---------------------------------------|
A-2222222222222222----------4444-0000---|
E------------------00000000-------------|

G---------------------------------------|
D---------------------------------------|
A-2222222222222222----------77777777----|
E------------------00000000-------------|

Solo:
G------------------------------------------------------------------|
D------------------------------------------------------------------|
A-33333333-55555555------------5-7------------5-7------------5-7---|
E-------------------5-5-3----3-----5-5-3----3-----5-5-3----3-------|

G------------------------|
D------------------------|
A---------7-5-4----------|
E-222-5~~------5-0-0-0---|

Pre Chorus 3: (And When it's over...)

G-------------------------------------------------|
D-------------------------------------------------|
A-------------------------------2-----------------|
E-5-5---2-0---5-5---2-2-0---5-------5-5-4-2-4-4---|

Chorus:

G----------------------------------------------------------------|
D----------------------------------------------------------------|
A-----------------------------------55555555-77777777------------|  (x3)
E-5555555555555555-2222222222222222-------------------555555555~-|

End with:
G--------------|
D--------------|
A-5-5-4-2-4-4~-|
E--------------|

Enjoy!

Oscar Krauss
comments
We did not receive enough feedback on this tab! Please rate:
print report bad tab
1 2 3 4 5
I want to post or [tab]
guest
You may want to rate the tab now too:
select rating
Please do not post tabs as comments. Select "correction" instead!