Oops, an error
Loading. Please wait.

Cathedral tab

version 2
version 2

Whole song

Interactive

19,551 views 18 this week
10 commentsread comments
1 2 3 4 5
x 16
add to favorites
×
Save as Personal and add changes to this tab that will be seen only by you. Learn more ›
×
You can save this tab as Personal to edit and correct it or add notes. All changes will be seen only by you. Learn more »
launch autoscroll
font size
0
reset
how to read this tab
guitar tuner
edit
Autoscroll
slow
fast
+/-
esc
set tempo
stop
Author
This is my cathedral tab from Van Halen's Diver Down album. This song is very unique
because it is all hammer ons and pull offs. The key to this song is is to have chorus and
delay on and continuously turn the volume nob on and off after you hit each single note.
The delay speed should be enough so that when you turn the nob on then off after you
hammer on a note you should hear the note twice when it fades in then out. I didn't
include the hammer ons and pull offs in the tab because it's pretty straight forward
and I'm explaining it to you now. 

E|--0--1--0--0-----0--1--0--0-----|
B|--1--1--0--1-----1--1--0--1-----|
G|--0--2--0--0--4--0--2--0--0--4--|
D|--2--3--2--2--4--2--3--2--2--4--|
A|--3-----3--3--2--3--2--3--3--2--|
E|--------3--------------3--------|

E|--------------------------------------------------------------------------|---------------------|
B|-----4---------8---------12-----------16-----------12-------7------10-----|---------------------|
G|----4-4-------8-8-------12-12--------16-16--------12-12----7-7----10-10---|--7-4----------------|
D|---4---4-----8---8-----12---12------16---16------12---12--7---7--10---10--|------5-3-5-3--------|
A|--2-----2-4-6-----6-8-10-----10-12-14-----14-12-10-------5------8------10-|--------------5-3-2--|
E|--------------------------------------------------------------------------|---------------------|


E|----------------------------------------------------------------------------------------|
B|-----4---------8---------12-----------16--------17------19------------------------------|
G|----4-4-------8-8-------12-12--------16-16-----17-17---19-19-----21--21--21--21---------|
D|---4---4-----8---8-----12---12------16---16---17---17-19---19---21--21--21--21----------|
A|--2-----2-4-6-----6-8-10-----10-12-14-----14-15-----17------19-21--21--21--21-----------|
E|----------------------------------------------------------------------------------------|

E|---------------------------------------------------------------|
B|---------------------------------------------------------------|
G|---------------------------------------------------------------|
D|---------------------------------------------------------------|
A|--19-21-17-19-15-17-14-15-12-14-10-12-9-10-7-9-5-7-3-5-2-3-----|
E|---------------------------------------------------------------|

E|-------------------------------|-------------------------------|
B|-------------------------------|-------------------------------|
G|--------------7----------------|--------------7----------------|
D|----------------7-5-4----------|----------------7-5-4----------|
A|--------5-7-5---------5-7-5-7--|--------5-7-5---------5-7-5-7--|
E|--3-2-3------------------------|--3-2-3------------------------|     

E|-------------------------------|-------------------------------|
B|-------------------------------|-------------------------------|
G|--------------7----------------|--------------7----------------|
D|----------------7-5-4----------|----------------7-5-4----------|
A|--------5-7-5---------5-7-5-7--|--------5-7-5---------5-7-5-7--|
E|--3-2-3------------------------|--3-2-3------------------------|

E|-------------------------------|
B|-------------------------------|
G|-------------------------------|
D|-------------------------------|
A|--5-7-5-7-5-7-5-7-5-7-5-7-7~~--|
E|-------------------------------|

            
            
Suggest correction
Creating personal tab
Creating personal tab
You can edit any tab online and save it as your Personal.

You can edit, replace or remove any tab part or add personal notes – all changes will be seen only by you.

Personal tabs can be accessed anytime from any device, even offline.
Learn more »
comments
print report bad tab
10 comments total. Showing first comments.
+2 reply
we§§ie 10 Mar 04, 2006 12:05 PM

..........no comment

+1 reply
sam453 62 Sep 12, 2006 02:31 PM

Pretty close, but there are several mistakes

+2 reply
zackisgood 10 Nov 25, 2006 02:58 PM

um...... damn........ thats tough

guest
You may want to rate the tab now too:
select rating
Wanna post a correction for this tab? Suggest correction