Oops, an error
Loading. Please wait.

China Town tab

version 1
version 1

Whole song

Interactive

1,739 views 6 this week
2 commentsread comments
1 2 3 4 5
2 more votes to show rating
add to favorites
×
Save as Personal and add changes to this tab that will be seen only by you. Learn more ›
×
You can save this tab as Personal to edit and correct it or add notes. All changes will be seen only by you. Learn more »
launch autoscroll
font size
0
reset
how to read this tab
guitar tuner
edit
Autoscroll
slow
fast
+/-
esc
set tempo
stop
Author
Difficulty
intermediate
Here the tab for the rythim part of the song "China Town" by Van Halen. Sorry but i 
can't tab the solo, but you can find a cover on youtube!

Here the tab:



Intro:

    T  T T  T  T T
|---12-0-8-----------------------------------------------------------------|
|-----------12-0-8---------------------------------------------------------|
|------------------| x 9 (Sometimes the------------------------------------|        Then
|------------------|      speed change a bit)---------> 1^|--10-12-10| x 6-|
|--------------------------------------------------------------------------|
|--------------------------------------------------------------------------|

|-------------------------------------|
|0-0-0-0-0-0-----------------------3-3|
|2-4-5-4-0-2-2(hold)---------------2-2|
|------------2(hold)---------------0-0|
|------------------------------0-5----|
|------------------------2-3-4--------|



|-----------------------------------------------------|
|--------------------8-8----------------------3-3-----|
|----9-9-5-7-----9-9-7-7-----9-9-5-7----2-2---2-2-----|
|----9-9-5-7-----9-9---------9-9-5-7----2-2---0-0-----| x 2 (The second time
|----7-7-3-5-----7-7---------7-7-3-5----0-0-----------|      don't play the
|0-----------0-----------0------------0-----0-----0---|      6^ string at the
                                                             end)




|-------------------------|                    |--------|
|-------------------------|                    |-----3-3|
|-------------------------|                    |2-2--2-2|
|-------------------------| x 3, then--------> |2-2--0-0|
|---7-7-7-5-7-7-7-5-7-----|                    |0-0-----|
|0----------------------0-|                    |----0---|




|-------------------------|                    |------------|
|-------------------------|                    |5--8-7^8^7--|
|-------------------------|                    |-5--------7-|
|-------------------------| x 3, then--------> |--5--------7|
|---7-7-7-5-7-7-7-5-7-----|                    |------------|
|0----------------------0-|                    |------------|

            
            
Suggest correction
Creating personal tab
Creating personal tab
You can edit any tab online and save it as your Personal.

You can edit, replace or remove any tab part or add personal notes – all changes will be seen only by you.

Personal tabs can be accessed anytime from any device, even offline.
Learn more »
Give kudos to tab author, rate the tab!
1 2 3 4 5
comments
print report bad tab
2 comments total.
0 reply
MadDaniell 10 Dec 31, 2013 01:48 AM

I think, on (hold) must be 4 fret

0 reply
MadDaniell 10 Dec 31, 2013 01:56 AM

I think,

--0-0-0-0-0-0--------------------------
--2-4-5-4-0-2-4(hold)-----------3-3----
--------------4(hold)-----------2-2----
--------------------------------0-0----
-------------------------2-4-5-6----2--
-------------------------0-2-3-4----0--

guest
You may want to rate the tab now too:
select rating
Wanna post a correction for this tab? Suggest correction