Oops, an error
Loading. Please wait.

Eruption Intro Live tab

70 views 6 this week
no commentswrite comment
1 2 3 4 5
1 last vote to show rating
add to favorites
×
Save as Personal and add changes to this tab that will be seen only by you. Learn more ›
×
You can save this tab as Personal to edit and correct it or add notes. All changes will be seen only by you. Learn more »
launch autoscroll
font size
0
reset
how to read this tab
guitar tuner
edit
Autoscroll
slow
fast
+/-
esc
set tempo
stop
[Intro Part 1]

e|----------------------------------|----------------------------------|-------------------------------|
B|----------2--3~------/5-----2-----|----------2--3~------/5-----2-----|----------2--3------/5----2----|
G|-------2--------------------------|-------2--------------------2-----|-------2------------------2----|
D|-------------4~------/6-----2-----|----2--------4~------/6-----2-----|----2--------4------/6----2----|
A|-0--------------------------------|-0--------------------------------|-0-----------------------------|
E|----------------------------------|----------------------------------|-------------------------------|

e|----------------------------------|---------------------------------|------------------------------|
B|----------2--3~------/5-----2-----|----------2--3----2TR3-----0-----|---------0--0-----2-----------|
G|-------2--------------------2-----|-------2-------------------1-----|------1-----1-----2-----2-----|
D|----2--------4~------/6-----2-----|----2--------4----2TR4-----------|---2--------------------4-----|
A|-0--------------------------------|-0-------------------------------|------------------------------|
E|----------------------------------|---------------------------------|------------------------------|

   3/4 time, this bar
e|--------------------------|
B|--------------------------|
G|----------0--------2------|
D|-------------------2------|
A|-------------------0------|
E|-2--2--3-----2--0---------|



[Intro Part 2]

e|----------------------------------|---------------------------------|---------------------------------|
B|----------2--3~------/5-----2-----|----------2--3----2TR3-----0-----|---------0--0-----2--------------|
G|-------2--------------------2-----|-------2-------------------1-----|------1-----1-----2-----2--------|
D|----2--------4~------/6-----2-----|----2--------4----2TR4-----------|---2--------------------4-----0--|
A|-0--------------------------------|-0-------------------------------|---------------------------------|
E|----------------------------------|---------------------------------|---------------------------2-----|

   3/4 time, this bar          4/4                                      2/4 time
e|---------------------------|----------------------------------------|-----------------|
B|---------------------------|----------2--3~------/5-----2----2TR3---|-----------------|
G|--2-----0-----------2------|-------2--------------------2----2------|-0---------------|
D|--------------------2------|----2--------4~------/6-----2----2TR4---|-----------------|
A|--------------------0------|-0--------------------------------------|-------0--0--0---|
E|-----3-----3--2--0---------|----------------------------------------|-----------------|



[Bluesy Outro]

   4/4 time                         get slower
e|----------------------|----------------------------|---------------------------------|
B|----------------------|----------------------------|------------3-/5---\3---2--------|
G|-------5--5~----------|-------5--5~----------------|-2-------2-----------------------|
D|-------4--4~----------|-------3--3~--------2---2---|-2----4-------/6---\4---2--------|
A|-0--------------------|-0---------------0--3---3---|-0-------------------------------|
E|----------------------|----------------------------|---------------------------------|

Eddie then divebombs and starts playing Eruption


************************************

| h   Hammer-on
| p   Pull-off
| /   Slide up
| \   Slide down
| ~   Vibrato
| TR  Trill (alternate hammer-on and pull off on two indicated notes)

************************************

            
            
Suggest correction
Creating personal tab
Creating personal tab
You can edit any tab online and save it as your Personal.

You can edit, replace or remove any tab part or add personal notes – all changes will be seen only by you.

Personal tabs can be accessed anytime from any device, even offline.
Learn more »
Give kudos to tab author, rate the tab!
1 2 3 4 5
comments
print report bad tab
guest
You may want to rate the tab now too:
select rating
Wanna post a correction for this tab? Suggest correction