Oops, an error
Loading. Please wait.

Everybody Wants Some Bass Tab

version 1
version 1

Whole song

Interactive

5,497 views 27 this week
no commentswrite comment
1 2 3 4 5
please rate
add to favorites
launch autoscroll
font size
0
reset
guitar tuner
Autoscroll
slow
fast
+/-
esc
set tempo
stop
Help us to improve Ultimate-Guitar.com Take our survey!
×
There is absolutley to tabs on the internet for this song so I decided to tab it for everyone.

intro-0:42

G]-------------|
D]-------------|  x4
A]--44------66-|
E]-------------|

G]------------------------------------------------------------------|
D]-----------------------------------------------------------5----7-|
A]--44--4-4-4-4-4-4-4-4-4-4-4-4-4-4-4-4-4---------------------------|
E]-----------------------------------------/12--0-00-0-5-0h3----5---|

G]----------------------------------------------------------------------|
D]---------------------------------------5----7-------------------------|
A]--------7-777-777-7770---------------------------------7-777-777-7797-|
E]-0-00-0-------------------0-00-0-5-0h3----5-----0-00-0----------------|

verse- 1:29

G]----------------------------------------------------------|
D]----------------------------------------------------------| x2
A]----------------------------------------------------------|
E]--0-0-0-0-0-0-0-0-0-0-0-0-0-11-0-0-0-0-0-0-0-0-0-0-0-0-11-|

chorus-

G]----------------------------------------------|
D]-------------5----7---------------------------|  x2
A]-----------------------------7-777-777-7770---|
E]-0-00-0-5-0h3----5----0-00-0------------------|

verse- 1:56

G]----------------------------------------------------------|
D]----------------------------------------------------------| x2
A]----------------------------------------------------------|
E]--0-0-0-0-0-0-0-0-0-0-0-0-0-11-0-0-0-0-0-0-0-0-0-0-0-0-11-|

break- 2:23

G]-------------------------------------------------------------------------|
D]-------------------------------------------------------------------------|
A]--------------------------------------------------------222-333-444-555--|
E]-000000-222222-333333-444444-00000-222222-333333-444444------------------|

guitar solo- 2:35 this part is tricky but if you t0 it youll get it.

G]------7-------7-----7------7------9-----9-|
D]----7-------7-----7------7------9-----9---| x4
A]-55-----555-----5-----55-----77-----7-----|
E]------------------------------------------|

At the end of the solo the bass hits a really high note that is
G]--20-20-20-20-20-20-20-20--|
D]---------------------------|
A]---------------------------|
E]---------------------------|

And thats it. its not perfect but it will get the job well done id say 95% is correct.
Suggest correction
Give kudos to tab author, rate the tab!
1 2 3 4 5
comments
print report bad tab
guest
You may want to rate the tab now too:
select rating
Please do not post tabs as comments. Select "correction" instead!