Oops, an error
Loading. Please wait.

Hear About It Later Tab

version 2
version 2

Whole song

Interactive

8,256 views 6 this week
no commentswrite comment
1 2 3 4 5
x 3
add to favorites
launch autoscroll
font size
0
reset
how to read this tab
guitar tuner
Autoscroll
slow
fast
+/-
esc
set tempo
stop
Help us to improve Ultimate-Guitar.com Take our survey!
×
Difficulty
intermediate
(/) Slide Up  () Slide Down  (PM) Palm Mute  (p) Pull Off  (b) Bend (r) Release
(v) Vibrato  (~) Let Ring (hp) HammerOn/Pull Off

e|---------------------------------------------------------------------------|
B|---------------------------------------------------------------------------|
G|-------2--------4--------0-----------0-------------2--------4-------0~-----|
D|----2--------2--------0-----------4------4-------2--------2------4~----4~--|
A|--0--------0-------0--------0--5-----------5--0--------0------0------------|
E|---------------------------------------------------------------------------|




e|---------------------------------------------------------------------------|
B|---------------------------------------------------------------------------|
G|--0--------2--------4--------0-----------0--------------2--------4--------0|
D|---4----2--------2--------0-----------4-----4--------2--------2--------0---|
A|-----0--------0--------0--------0--5-----------5--0--------0--------0------|
E|---------------------------------------------------------------------------|




e|-------------------------0~------------------------------------------------|
B|---------------------------------------------------------------------------|
G|--------0-------------0-------------------0-----------------2--3-----2--3--|
D|------4---4-----------------2--3-------3-----3-----------1--------3--------|
A|-0--5-------5-----3--------------2--3-----------3-----1--------------------|
E|---------------2-----------------------------------0-----------------------|




e|------------------------------------------0~-------------------------------|
B|---------------------0~----------0~----------0~----------------------------|
G|---------------0--2~----2~----2~----2~----------2~-----------0-------------|
D|-----------0---------------5~----------5~----------5~------3-----------3~--|
A|--------------------------------------------------------3--------2--3~-----|
E|--0--2--4~-------------------------------------------2~--------------------|


End of clean intro- pedal distortion

e|---------------------------------------------------------------------------|
B|---------------------------------------------------------------------------|
G|--------2-------4-------0-------------0-------------2-------4-------0~-----|
D|-------------0PM------0PM-----------4----4-------2-------2-------0---------|
A|--0~-------0PM------0PM------0PM--5--------5--0PM------0PM-----0PM---------|
E|---------------------------------------------------------------------------|

-"Wwwoooooowww!...


e|---------------------------------------------------------------------------|
B|---------------------------------------------------------------------------|
G|--------0---------2-------4--------0-------------0------------2--------4---|
D|------4---4------------2PM-------0PM-----------4---4--------2-------2PM----|
A|-0--5---------0~-----0PM-------0PM------0PM--5-------5---0PM-----0PM-------|
E|---------------------------------------------------------------------------|




e|----------------------------------2-----0--2-3----14--15hp--12-------------|
B|-------------------------------------3-------------------------------------|
G|--------0~-----------0--------2~-------------------------------------------|
D|------0-----------4----4------0~-------------------------------------------|
A|--0PM------0PM--5--------5-------------------------------------------------|
E|---------------------------------------------------------------------------|

                                   -Ain't got no money no house on the hill..



e|--------2-----0------------------------------------------------------------|
B|----------3-----3----------------------------------------------------------|
G|------------------------------------------------------------2---------4----|
D|--0--0------------------------------------------------------------0PM------|
A|-------------------0-1PM--1PM--1PM--1PM--1/3--3/5---0PM--0PM---0PM---------|
E|---------------------------------------------------------------------------|

Tell me honey, will your lovin' pay my bills, yeah...


e|---------------------------------------------------------------------------|
B|---------------------------------------------------------------------------|
G|-------0---------0----------2----------4---------0-----------0-------2~----|
D|----0PM--------4---4------2--------------------------------4---4-----0~----|
A|--0PM-----0--5-------5--0~-----0PM--0PM----0PM-0PM----0--5-------5---------|
E|---------------------------------------------------------------------------|
                     
                     ...pay my bills...................................Neigh-            


e|--2----0--2--3---3--4hp--0p-------2-----0----------------------------------|
B|----3-------------------------------3-----3--------------------------------|
G|---------------------------------------------------------------------------|
D|---------------------------0--0--------------------------------------------|
A|--------------------------------------------0-1PM--1PM--1PM--1PM--1/3--3/5-|
E|---------------------------------------------------------------------------|

-bors gettin' crazy...next door....major violation, carried away for sure


e|---------------------------------------------------------------------------|
B|---------------------------------------------------------------------------|
G|------------2-----------4-----------0--------0----------2----------4-------|
D|-------------------------------------------4---4------2--------------------|
A|---0PM--0PM---0PM--0PM-----0PM--0PM----0--5------5--0~-----0PM--0PM--------|
E|---------------------------------------------------------------------------|

                                                     I know!


e|------------------------------------------------------------0--------------|
B|----------------------------------------------------------0----------------|
G|------------0---------0----------0-----0-------0---------------------------|
D|--------------------4---4------0-----0------0----0--------------2--3-------|
A|--0PM--0PM-----0--5------5---3-----3-----3----------3----------------2--3--|
E|------------------------------------------------------2--------------------|

                        See, I been tried and convicted...........I wanna run
                                            

e|---------------------------------------------------------------------------|
B|-------------------0-------------------------------------------------------|
G|----0--------0--2----0--------------------------2-----------4-----------0--|
D|-3----3-----------------------------------------2--------------------------|
A|---------------------------------------0--3--0-----0PM--0PM---0PM--0PM-----|
E|---------4--------------0--0--2--2--3--------------------------------------|

-for my money, that's all...I don't wanna (I don't wanna hear about it later)


e|---------------------------------------------------------------------------|
B|---------------------------------------------------------------------------|
G|---------------------     Repeat corus & 2nd verse     --------------------|
D|---------------------------------------------------------------------------|
A|---------------------------------------------------------------------------|
E|---------------------------------------------------------------------------|

(The bridge before guitar solo:)


e|------------0~--------------0~-------------------------------------0-------|
B|--------------3--1~------1----3--1~-------0--1-----------------------0-----|
G|---------------------------------------2-----------------------------------|
D|-----------------------------------------------------------------0---------|
A|--3PM--3PM----------2~-------------0~----------0PM--0--2h--2/3-------------|
E|---------------------------------------------------------------------------|

But you can try me at home, if it feels all right..        But I ain't..


e|---------------------------------------------------------------------------|
B|---------------------------------------------------------------------------|
G|--2---2PM--2PM--2PM--2PM--2PM--2PM-------------2~--2PM--2PM--2PM--2PM--2PM-|
D|--0---0PM--0PM--0PM--0PM--0PM--0PM--5~--4~-----0~--0PM--0PM--0PM--0PM--0PM-|
A|--0---------------------------------3~--2~--0~-----------------------------|
E|---------------------------------------------------------------------------|

    -home, ...                                   tonight!            


e|---------------------------------------------------------------------------|
B|---------------------------------------------------------------------------|
G|--2PM--2PM-----------------------------------------------------------------|
D|--0PM--0PM--2/10/1---------------------------------------------------------|
A|------------2/10/1---------------------------------------------------------|
E|---------------------------------------------------------------------------|

              Wow! (Guitar Solo)
Suggest correction
Give kudos to tab author, rate the tab!
1 2 3 4 5
comments
print report bad tab
guest
You may want to rate the tab now too:
select rating
Wanna post a correction for this tab? Suggest correction